Log in

One click and you are in

Login with Facebook Login with Google

Why sign up and log in

Guitar Tabs Explorer
Billy Idol bass tabs for Catch my fall

Bass tabs

Billy Idol – Catch my fall


Tuning Drop D (DADG)
Intro: 4 bars rest then;
G|----------------|
D|----------------|
A|----------------|
D|----------0-2-4-|

G|----------------|----------------|----------------|----------------|
D|----------------|----------2-0---|----------------|----------------|
A|----------2-3-5-|5-5-5-5-5-----2-|3-3-3-3-3-5-7-5-|5-5-5-5-5-------|
D|5-5-5-5-5-------|----------------|----------------|----------0-2-4-|


Verse1
G|----------------|----------------|----------------|----------------|
D|----------------|----------------|----------------|----------------|
A|--------------5-|5-5-5-5-5-5-5-2-|3-3-3-3-3-3-3-5-|5-5-5-5-5-------|
D|5-5-5-5-5-5-5---|----------------|----------------|----------0-2-4-|

G|----------------|----------------|----------------|----------------|
D|----------------|----------------|----------------|----------------|
A|--------------5-|5-5-5-5-5-5-5-2-|3-3-3-3-3-3-3-5-|5-5-5-5-5-5-5-2-|
D|5-5-5-5-5-5-5---|----------------|----------------|----------------|

G|----------------|----------------|----------------|----------------|
D|----------------|----------------|----------------|----------7-5-4-|
A|3-3-3-3-3-3-3-3-|3-3-3-3-3-3-3-3-|5-5-5-5-5-5-5-5-|5-5-5-5-5-------|
D|----------------|----------------|----------------|----------------|

G|----------------|----------------|----------------|----------------|
D|----------------|----------------|----------------|----------5-4---|
A|3-3-3-3-3-3-3-3-|3-3-3-3-3-3-3-3-|5-5-5-5-5-5-5-5-|5-5-5-5-5-----5-|
D|----------------|----------------|----------------|----------------|

Pre-Chorus1
G|----------------|----------------|----------------|----------------|
D|----------------|----------------|----------------|----------------|
A|----------------|0-0-0-0-0-0-0---|----------------|0-0-0-0-0-0-0-2-|
D|2-2-2-2-2-2-2-5-|--------------0-|2-2-2-2-2-2-2-5-|----------------|

G|----------------|----------------|----------------|----------------|
D|----------------|----------------|----------------|----------5-7---|
A|3-3-3-3-3-3-3-3-|3-3-3-3-3-2-0---|5-5-5-5-5-5-5-5-|5-5-5-5-5-----5-|
D|----------------|--------------5-|----------------|----------------|

G|----------------|----------------|----------------|----------------|
D|----------------|----------------|----------------|----------------|
A|3-3-3-3-3-3-3-3-|3-3-3-3-3-3-3-3-|5-5-5-5-5-5-5-5-|5-5-5-5-5-------|
D|----------------|----------------|----------------|----------0-2-4-|


Chorus1
G|----------------|----------------|----------------|----------------|
D|----------------|----------2-0---|----------------|----------------|
A|----------2-3-5-|5-5-5-5-5-----2-|3-3-3-3-3-5-7-5-|5-5-5-5-5-------|
D|5-5-5-5-5-------|----------------|----------------|----------0-2-4-| 2x


Verse2 = Verse1


Pre-Chorus2 = Pre-Chorus1 except last 4 bars are
G|----------------|----------------|----------------|----------------|
D|----------------|----------------|----------------|----------5-7---|
A|3-3-3-3-3-3-3-3-|3-3-3-3-3-3-3-3-|5-5-5-5-5-5-5-5-|5-5-5-5-5-----5-|
D|----------------|----------------|----------------|----------------|


Chorus2
G|----------------|----------------|----------------|----------------|
D|----------------|----------------|----------------|----------------|
A|3-3-3-3-3-3-3-3-|3-3-3-3-3-3-----|5-5-5-5-5-5-5-5-|5-5-5-5-5-0-----|
D|----------------|------------5-5-|----------------|--------------5-|

G|----------------|----------------|----------------|-------------45-|
D|----------------|----------------|----------------|--------457-7---|
A|3-3-3-3-3-3-3-3-|3-3-3-3-3-3-----|5-5-5-5-5-5-5-5-|5-5-5-5---------|
D|----------------|------------5-5-|----------------|----------------|


Solo
G|----------------|----------------|----------------|-------------45-|
D|----------------|----------------|----------------|--------457-7---|
A|3-3-3-3-3-3-3-3-|3-3-3-3-3-3-----|5-5-5-5-5-5-5-5-|5-5-5-5---------|
D|----------------|------------5-5-|----------------|----------------|

G|----------------|----------------|----------------|----------------|
D|----------------|----------------|----------------|----5-4---------|
A|3-3-3-3-3-3-3-3-|3-3-3-3-3-3-----|5-5-5-5-5-5-5-5-|5-5-----5-3---2-|
D|----------------|------------5-5-|----------------|----------------|


Pre-Chorus3
G|----------------|----------------|----------------|----------------|
D|----------------|----------------|----------------|----------------|
A|----------------|0-0-0-0-0-0-0---|----------------|0-0-0-0-0-0-0-2-|
D|2-2-2-2-2-2-2-5-|--------------0-|2-2-2-2-2-2-2-5-|----------------|

G|----------------|----------------|----------------|----------------|
D|----------------|----------------|----------------|----------------|
A|3-3-3-3-3-3-3-3-|3-3-3-3-3-2-0---|5-5-5-5-5-5-5-5-|5-5-5-5-5-5-5-2-|
D|----------------|--------------5-|----------------|----------------|

G|----------------|----------------|----------------|----------------|
D|----------------|----------------|----------------|----------------|
A|3-3-3-3-3-3-3-3-|3-3-3-3-3-2-0---|5-5-5-5-5-5-5-5-|5-5-5-5-5-5-5-2-|
D|----------------|--------------5-|----------------|----------------|

G|----------------|----------------|----------------|----------------|
D|----------------|----------------|----------------|----------------|
A|3-3-3-3-3-3-3-3-|3-3-3-3-3-3-3-3-|5-5-5-5-5-5-5-5-|5-5-5-5-5-------|
D|----------------|----------------|----------------|----------0-2-4-|


Chorus3 = Chorus1


Outro = Chorus1
ⓘ Bass guitar tab for 'Catch My Fall' by Billy Idol, William Michael Albert Broad, a male post-punk artist from Stanmore, Middlesex, UK. Billy Idol was born in 1955. Billy Idol is known for his crazy rock/pop music.

Almost there ...

Sign in to get your own page with links to favourite songs and more. You are just one click away...

Login with Facebook Login with Google