Log in

One click and you are in

Login with Facebook Login with Google

Why sign up and log in

Guitar Tabs Explorer
Idlewild guitar chords for American english

Guitar chords

American English

By Idlewild

This is how I play it.
Main Riff (played throughout verse)

e-----------
B-12--------
G----11-9-8-
D-----------
A-----------
E-----------


Verse Chords (Listen for strumming pattern)

e---7----4----7----7-----
B---7----4----7----7-----
G---8----4----9----8-----
D---9----6----9----9-----
A---9----6----7----9-----
E---7----4----x----7-----


Ending (You'll find what you'll find when you find there's nothing bit)

e-----------------------
B-----------------------
G-----------------------
D---9----4----6----2----
A---9----4----6----2----
E---7----2----4----0----

Hopefully enough to get you started.  Any additions welcome.

By Rob Peden

Other versions of American English

American englishTabs

Almost there ...

Sign in to get your own page with links to favourite songs and more. You are just one click away...

Login with Facebook Login with Google