She Sang Hymns Out Of Tune by The Idle Race

She Sang Hymns Out Of Tune bass tab by The Idle Race

Bass tabs

Tuning: Standard (E A D G)

Tuning: EADG

0:05

G|----|
D|----|
A|3---|
E|----|

G|------------------------------------------------------------------------------------------------|
D|3-----------------------3-----------------------3-----------------------3-----------------------|
A|--------------------3-----------------------3-----------------------3-----------------------3---|
E|------------------------------------------------------------------------------------------------|

0:10

G|------------------------------------------------------------------------------------------------|
D|3-----------------------3-----------------------3-----------------------3-----------------------|
A|--------------------3-----------------------3-----------------------3-----------------------3---|
E|------------------------------------------------------------------------------------------------|

G|----------------------------------------------------------------------------------------2-------|
D|3-----------------------3-----------------------3-----------------------3-------5---------------|
A|--------------------3-----------------------3---------------------------------------------------|
E|------------------------------------------------------------------------------------------------|

0:19

G|3-----------------------------------------------3-------2---------------|
D|------------------------3---------------------------------------5-------|
A|------------------------------------------------------------------------|
E|------------------------------------------------------------------------|

G|------------------------------------------------------------------------------------------------|
D|3-----------------------3-----------------------------------------------------------------------|
A|------------------------------------------------0-----------------------0---------------3-------|
E|------------------------------------------------------------------------------------------------|

G|------------------------------------------------|
D|----------------------------------------2-------|
A|1-----------------------1-------3---------------|
E|------------------------------------------------|

G|------------------------3-----------------------2-----------------------------------------------|
D|3-------------------------------------------------------------------------------0-------2-------|
A|------------------------------------------------------------------------3-----------------------|
E|------------------------------------------------------------------------------------------------|

0:35

G|------------------------------------------------------------------------------------------------|
D|3-----------------------------------------------3-----------------------------------------------|
A|------------------------3-----------------------------------------------3-----------------------|
E|------------------------------------------------------------------------------------------------|

G|----------------------------------------------------------------------------------------2-------|
D|3-----------------------------------------------3-----------------------3-------5---------------|
A|------------------------3-----------------------------------------------------------------------|
E|------------------------------------------------------------------------------------------------|

0:44

G|3-----------------------------------------------3-------2---------------|
D|------------------------3---------------------------------------5-------|
A|------------------------------------------------------------------------|
E|------------------------------------------------------------------------|

G|------------------------------------------------------------------------------------------------|
D|3-----------------------3-----------------------------------------------------------------------|
A|------------------------------------------------0-----------------------0---------------3-------|
E|------------------------------------------------------------------------------------------------|

G|------------------------------------------------|
D|----------------------------------------2-------|
A|1-----------------------1-------3---------------|
E|------------------------------------------------|

G|------------------------3-----------------------2-----------------------------------------------|
D|3-------------------------------------------------------------------------------0-------2-------|
A|------------------------------------------------------------------------3-----------------------|
E|------------------------------------------------------------------------------------------------|

0:59

G|------------------------------------------------------------------------------------------------|
D|3-----------------------------------------------3-----------------------------------------------|
A|------------------------3-----------------------------------------------3-----------------------|
E|------------------------------------------------------------------------------------------------|

G|----------------------------------------------------------------------------------------2-------|
D|3-----------------------------------------------3-----------------------3-------5---------------|
A|------------------------3-----------------------------------------------------------------------|
E|------------------------------------------------------------------------------------------------|

1:09

G|3-----------------------------------------------3-------2---------------|
D|------------------------3---------------------------------------5-------|
A|------------------------------------------------------------------------|
E|------------------------------------------------------------------------|

G|------------------------------------------------------------------------------------------------|
D|3-----------------------3-----------------------------------------------------------------------|
A|------------------------------------------------0-----------------------0---------------3-------|
E|------------------------------------------------------------------------------------------------|

G|------------------------------------------------|
D|----------------------------------------2-------|
A|1-----------------------1-------3---------------|
E|------------------------------------------------|

G|------------------------3-----------------------2-----------------------------------------------|
D|3-------------------------------------------------------------------------------0-------2-------|
A|------------------------------------------------------------------------3-----------------------|
E|------------------------------------------------------------------------------------------------|

1:24

G|------------------------------------------------------------------------------------------------|
D|3-----------------------------------------------3-----------------------------------------------|
A|------------------------3-----------------------------------------------3-----------------------|
E|------------------------------------------------------------------------------------------------|

G|----------------------------------------------------------------------------------------2-------|
D|3-----------------------------------------------3-----------------------3-------5---------------|
A|------------------------3-----------------------------------------------------------------------|
E|------------------------------------------------------------------------------------------------|

1:34

G|3-----------------------------------------------3-------2---------------|
D|------------------------3---------------------------------------5-------|
A|------------------------------------------------------------------------|
E|------------------------------------------------------------------------|

G|------------------------------------------------------------------------------------------------|
D|3-----------------------------------------------3-----------------------------------------------|
A|------------------------3-----------------------------------------------3-----------------------|
E|------------------------------------------------------------------------------------------------|

G|------------------------------------------------------------------------------------------------|
D|----------------------------------------------------------------------------------------2-------|
A|0-----------------------0---------------3-------1-----------------------1-------3---------------|
E|------------------------------------------------------------------------------------------------|

G|------------------------3-----------------------2-----------------------------------------------|
D|3-------------------------------------------------------------------------------0-------2-------|
A|------------------------------------------------------------------------3-----------------------|
E|------------------------------------------------------------------------------------------------|

1:51

G|------------------------------------------------3-----------------------3-----------------------|
D|3-----------------------3-------------------------------------------------------3-------4-------|
A|------------------------------------------------------------------------------------------------|
E|------------------------------------------------------------------------------------------------|

G|------------------------------------------------|
D|5-----------------------5-----------------------|
A|------------------------------------------------|
E|------------------------------------------------|

G|5-----------------------3-----------------------2-----------------------------------------------|
D|--------------------------------------------------------------------------------0-------2-------|
A|------------------------------------------------------------------------3-----------------------|
E|------------------------------------------------------------------------------------------------|

2:03

G|------------------------------------------------------------------------------------------------|
D|3-----------------------------------------------3-----------------------------------------------|
A|------------------------3-----------------------------------------------3-----------------------|
E|------------------------------------------------------------------------------------------------|

G|------------------------------------------------------------------------|
D|3-----------------------------------------------3---------------0-------|
A|------------------------3-------------------------------3---------------|
E|------------------------------------------------------------------------|

G|------------------------------------------------|
D|3-----------------------------------------------|
A|------------------------3-----------------------|
E|------------------------------------------------|

2:13

G|------------------------------------------------------------------------------------------------|
D|3-----------------------------------------------3-----------------------------------------------|
A|------------------------3-----------------------------------------------3-----------------------|
E|------------------------------------------------------------------------------------------------|

G|----------------------------------------------------------------------------------------2-------|
D|3-----------------------------------------------3-----------------------3-------5---------------|
A|------------------------3-----------------------------------------------------------------------|
E|------------------------------------------------------------------------------------------------|

2:23

G|3-----------------------------------------------3-------2---------------|
D|------------------------3---------------------------------------5-------|
A|------------------------------------------------------------------------|
E|------------------------------------------------------------------------|

G|------------------------------------------------------------------------------------------------|
D|3-----------------------3-----------------------------------------------------------------------|
A|------------------------------------------------0-----------------------0---------------3-------|
E|------------------------------------------------------------------------------------------------|

G|------------------------------------------------|
D|----------------------------------------2-------|
A|1-----------------------1-------3---------------|
E|------------------------------------------------|

G|------------------------3-----------------------2-----------------------------------------------|
D|3-------------------------------------------------------------------------------0-------2-------|
A|------------------------------------------------------------------------3-----------------------|
E|------------------------------------------------------------------------------------------------|

2:38

G|------------------------------------------------3-----------------------3-----------------------|
D|3-----------------------3-------------------------------------------------------3-------4-------|
A|------------------------------------------------------------------------------------------------|
E|------------------------------------------------------------------------------------------------|

G|------------------------------------------------|
D|5-----------------------5-----------------------|
A|------------------------------------------------|
E|------------------------------------------------|

G|5-----------------------3-----------------------2-----------------------------------------------|
D|--------------------------------------------------------------------------------0-------2-------|
A|------------------------------------------------------------------------3-----------------------|
E|------------------------------------------------------------------------------------------------|

2:49

G|------------------------------------------------------------------------------------------------|
D|3-----------------------------------------------3-----------------------------------------------|
A|------------------------3-----------------------------------------------3-----------------------|
E|------------------------------------------------------------------------------------------------|

G|----------------------------------------------------------------------------|
D|3-----------------------------------------------3---------------------------|
A|------------------------3-------------------------------3-------0-----------|
E|------------------------------------------------------------------------1---|

Find guitar tabs and chords

A B C D E F G H I J K L M N O P Q R S T U V W X Y Z #