Log in

One click and you are in

Login with Facebook Login with Google

Why sign up and log in

Guitar Tabs Explorer
Ideal bass tabs for Monotonie

Bass tabs

Verse 1a: 0:00
G|----------------|----------------|----------------|----------------||
D|---5--8---------|---6---8--------|---5--8---------|---6--8---------|| 4x
A|6------6------67|8-------------8-|6------6------67|8-------------8-||
E|----------------|--------6--6-6--|----------------|-------6--6-6---||
Verse 1b: 0:39
G|----------------|----------------|----------------|----------------||
D|---5--8---------|---6---8--------|---5--8---------|---6--8---------|| 2x
A|6------6------67|8-------------8-|6------6------67|8-------------8-||
E|----------------|--------6--6-6--|----------------|-------6--6-6---||


Bridge 1: 0:57
G|----------------|----------------|----------------|----------------||
D|6--6----6--6--6-|5--5----5--5--5-|6--6----6--6--6-|8--8-----—------||
A|----6--6----6---|----5--5----5---|----6--6----6---|----8--8----8--8||
E|----------------|----------------|----------------|--------6--6----||


Verse 2a: 1:07
G|----------------|----------------|----------------|----------------||
D|---5--8---------|---6---8--------|---5--8---------|---6--8---------|| 2x
A|6------6------67|8-------------8-|6------6------67|8-------------8-||
E|----------------|--------6--6-6--|----------------|-------6--6-6---||


Verse 2b: 1:25
G|----------------|----------------|----------------|----------------||
D|---5--8---------|---6---8--------|---5--8---------|---6--8---------|| 2x
A|6------6------67|8-------------8-|6------6------67|8-------------8-||
E|----------------|--------6--6-6--|----------------|-------6--6-6---||


Bridge 2: 1:44
G|----------------|----------------|----------------|5---------------||
D|6--6----6--6--6-|5--5----5--5--5-|6--6----6--6--6-|--8-5--—--------||
A|----6--6----6---|----5--5----5---|----6--6----6---|------8-6-------||
E|----------------|----------------|----------------|----------8-6---||

Keyboard Solo: 1:54
G|----------------|----------------|----------------|----------------||
D|---5--8---------|---6---8--------|---5--8---------|---6--8---------|| 3x
A|6------6------67|8-------------8-|6------6------67|8-------------8-||
E|----------------|--------6--6-6--|----------------|-------6--6-6---||

Guitar Solo: 2:22
G|----------------|----------------|----------------|----------------||
D|6--6----6--6--6-|5--5----5--5--5-|6--6----6--6--6-|8--8-----—------||
A|----6--6----6---|----5--5----5---|----6--6----6---|----8--8----8--8||
E|----------------|----------------|----------------|--------6--6----||

Verse 3a: 2:32
G|----------------|----------------|----------------|----------------||
D|---5--8---------|---6---8--------|---5--8---------|---6--8---------|| 4x
A|6------6------67|8-------------8-|6------6------67|8-------------8-||
E|----------------|--------6--6-6--|----------------|-------6--6-6---||

Interlude: 3:10 (ad lib on base figure)
G|----------------|----------------|----------------|----------------||
D|--------------8-|----------------|--------------8-|----------------|| 5x
A|6--6----6--6-6--|8--8----8--8-8--|6--6----6--6-6--|8--8----8--8-8--||
E|----------------|--------------8-|----------------|--------------8-||


Verse 4a: 3:56
G|----------------|----------------|----------------|----------------||
D|---5--8---------|---6---8--------|---5--8---------|---6--8---------|| 2x
A|6------6------67|8-------------8-|6------6------67|8-------------8-||
E|----------------|--------6--6-6--|----------------|-------6--6-6---||


Verse 4b: 4:15
G|----------------|----------------|----------------|----------------||
D|---5--8---------|---6---8--------|---5--8---------|---6--8---------|| 2x
A|6------6------67|8-------------8-|6------6------67|8-------------8-||
E|----------------|--------6--6-6--|----------------|-------6--6-6---||


Outro: 4:33
G|----------------|----------------|----------------|5---------------||
D|6--6----6--6—-6-|5--5----5--5--5-|6--6----6--6--6-|--8-5--—--------||
A|----6--6----6---|----5--5----5---|----6--6----6---|------8-6-------||

Almost there ...

Sign in to get your own page with links to favourite songs and more. You are just one click away...

Login with Facebook Login with Google