Log in

One click and you are in

Login with Facebook Login with Google

Why sign up and log in

Guitar Tabs Explorer
Icehouse bass tabs for Sister

Bass tabs

Tuning: Standard tuning


Tabbed by: bassm99
E-mail: alanmatthews1966@yahoo.co.uk
Tuning: E, A, D, G

Bass starts: 0:03


Verse: (Play Twice)

G|-------------------------------------------------------------------------------|
D|-------------------------------------------------------------------------------|
A|-------------------------------------------------------------------------------|
E|--5-5-5-5-5-5-5-5--1-1-1-1-1-1-1-1/--5-5-5-5-5-5-5-5--1-1-1-1-1-1-1-1/---------|

G|-------------------------------------------------------------------------------|
D|-------------------------------------------------------------------------------|
A|--5-5-5-5-5-5-5-5--------------------------------------------------------------|
E|-------------------2-2-2-2-2-2-2-2--5h7-7-7-7--5h7-7-7-7--5h7-7-7-7--5h7-7-7-7-|


Chorus:

G|-------------------------------------------------------------------------------|
D|-------------------------------------------------------------------------------|
A|--5-5-5-5-5-5-5-5-------------------------5-5-5-5--7-7-7-7---------------------|
E|-------------------3-3-3-3--5-5-5-5-(x3)--------------------2-2-2-2--3-3-3-3---|


Verse:

G|-------------------------------------------------------------------------------|
D|-------------------------------------------------------------------------------|
A|-------------------------------------------------------------------------------|
E|--5-5-5-5-5-5-5-5\--1-1-1-1-1-1-1-1--5-5-5-5-5-5-5-5\--1-1-1-1-1-1-1-1---------|

G|-------------------------------------------------------------------------------|
D|-------------------------------------------------------------------------------|
A|--5-5-5-5-5-5-5-5--------------------------------------------------------------|
E|-------------------2-2-2-2-2-2-2-2--5h7-7-7-7--5h7-7-7-7--5h7-7-7-7--5h7-7-7-7-|

G|-------------------------------------------------------------------------------|
D|-------------------------------------------------------------------------------|
A|-------------------------------------------------------------------------------|
E|--5-5-5-5-5-5-5-5\--1-1-1-1-1-1-1-1/--5-5-5-5-5-5-5-5--1-1-1-1-1-1-1-1/--------|

G|-------------------------------------------------------------------------------|
D|-------------------------------------------------------------------------------|
A|--5-5-5-5-5-5-5-5--------------------------------------------------------------|
E|-------------------2-2-2-2-2-2-2-2--5h7-7-7-7--5h7-7-7-7--5h7-7-7-7--5h7-7-7-7-|

Chorus: (Last Note Let Ring)

G|-------------------------------------------------------------------------------|
D|-------------------------------------------------------------------------------|
A|--5-5-5-5-5-5-5-5-------------------------5-5-5-5--7-7-7-7---------------------|
E|-------------------3-3-3-3--5-5-5-5-(x3)--------------------2-2-2-2--3-3-3-3h5-|


Bridge: (Play 4 Times) (Starts 1:51)


G|-------------------------------------------------------------------------------|
D|-------------------------------------------------------------------------------|
A|--5-5-5-5-5-5-5-5-5-5-5-5-5-5-5-5----------------------------------------------|
E|-------------------------------------------------------------------------------|


Verse: (Play Twice)

G|-------------------------------------------------------------------------------|
D|-------------------------------------------------------------------------------|
A|-------------------------------------------------------------------------------|
E|--5-5-5-5-5-5-5-5\--1-1-1-1-1-1-1-1/--5-5-5-5-5-5-5-5\--1-1-1-1-1-1-1-1/-------|

G|-------------------------------------------------------------------------------|
D|-------------------------------------------------------------------------------|
A|--5-5-5-5-5-5-5-5--------------------------------------------------------------|
E|-------------------2-2-2-2-2-2-2-2--5h7-7-7-7--5h7-7-7-7--5h7-7-7-7--5h7-7-7-7-|


Chorus:

G|-------------------------------------------------------------------------------|
D|-------------------------------------------------------------------------------|
A|--5-5-5-5-5-5-5-5-------------------------5-5-5-5--7-7-7-7---------------------|
E|-------------------3-3-3-3--5-5-5-5-(x3)--------------------2-2-2-2--3-3-3-3---|


Chorus:

G|-------------------------------------------------------------------------------|
D|-------------------------------------------------------------------------------|
A|--5-5-5-5-5-5-5-5-------------------------5-5-5-5--7-7-7-7--9-9-9-9------------|
E|-------------------3-3-3-3--5-5-5-5-(x3)---------------------------------------|

G|-------------------------------------------------------------------------------|
D|-------------------------------------------------------------------------------|
A|--10-10-10-10--12-12-12-12-12-12-12--10----5-----------------------------------|
E|-------------------------------------------------------------------------------|

Sister bass tab

Icehouse bass tabs for Sister "Sister" from the album "Icehouse" (1980). Written by Davies/Hoste.

Band were known as Flowers for this release in Australia.

Almost there ...

Sign in to get your own page with links to favourite songs and more. You are just one click away...

Login with Facebook Login with Google