Log in

One click and you are in

Login with Facebook Login with Google

Why sign up and log in

Guitar Tabs Explorer
Iced Earth tabs for V

Guitar tabs

Difficulty: Advanced

V - half-step down
=

intro:
|-------------------------|------------------------------|-------------------------|
|-------------------------|------------------------------|-------------------------|
|-------------------------|------------------------------|-------------------------|
|-------------------------|-------------------------[2x]-|-------------------------|
|-2-----2-----2-----2-3-2-|-3-----2-----2-----2-3-2------|-3-----2-----2-----7-8-7-|
|-0-0-0-0-0-0-0-0-0-0-0-0-|-0-0-0-0-0-0-0-0-0-0-0-0------|-0-0-0-0-0-0-0-0-0-0-0-0-|
    * *   * *   * *           * *   * *   * *                * *   * *   * *


verse:
|-------------------------|-------------------------|
|-------------------------|-------------------------|
|-------------------------|-------------------------|
|-------------------------|-------------------------|
|-8-----2-----2-----2-3-2-|-3-----2-----2-----7-8-7-|
|-0-0-0-0-0-0-0-0-0-0-0-0-|-0-0-0-0-0-0-0-0-0-0-0-0-|
    * *   * *   * *           * *   * *   * *


chorus:
|--------------------------|-------------------------|
|--------------------------|-------------------------|
|--------------------------|-------------------------|
|--------5------4----------|-------------------------|
|-7-7777---7777---7777-7-\-|-3-333-7-3-3-5-555-9-5-5-|
+--------------------------|-------------------------+
|   ****   ****   ****       * *** * * * * *** * * * |
|harmony:                                            |
+--------------------------|-------------------------+
|--------------------------|-------------------------|
|--------4-----------------|-------------------------|
|-5-5555---5555-7-5555-5-\-|-------5-----------7-----|
|--------------------------|-3-333---3-3-5-555---5-5-|
|--------------------------|-------------------------|
    ****   ****   ****       * *** * * * * *** * * *

alt verse:
|-------------------------|-------------------------|
|-------------------------|-------------------------|
|-------------------------|-------------------------|
|-------------------------|-------------------------|
|-2-----2-----2-----2-3-2-|-3-----2-----2-----7-8-7-|
|-0-0-0-0-0-0-0-0-0-0-0-0-|-0-0-0-0-0-0-0-0-0-0-0-0-|
    * *   * *   * *           * *   * *   * *

chorus:
|-----------------------------------------------------------------------------------------|
|-----------------------------------------------------------------------------------------|
|---------------------------------------------7-----7-----7-----7-\-5-----5-----4---------|
|-2-----2-----2-----2-/-5-----5-----5-----5-/-7-----7-----7-----7-\-5-----5-----5---------|
|-2-----2-----2-----2-/-5-----5-----5-----5-/-5-5-5-5-5-5-5-5-5-5-\-3-3-3-3-3-3-2---------|
+-0-0-0-0-0-0-0-0-0-0-/-3-3-3-3-3-3-3-3-3-3-/---------------------------------------5-3-2-+
|   * *   * *   * *       * *   * *   * *       * *   * *   * *       * *   * *     * * * |
|lead:                                                                                    |
+-----------------------------------------------------------------------------------------+
|-----------------------------------------------------------------------------------------|
|-9---~------11----~---12----11----------------14----12----11--------12----11-------------|
|---------------------------------12---~------------------------14--------------12---~----|
|-----------------------------------------------------------------------------------------|
+-----------------------------------------------------------------------------------------+
|                                                                                         |
|harmony:                                                                                 |
+-----------------------------------------------------------------------------------------+
|------------10----~---12----10----------------13----12----10--------12----10-------------|
|-12--~---------------------------11---~------------------------12--------------11---~----|
|-----------------------------------------------------------------------------------------|
|-----------------------------------------------------------------------------------------|
|-----------------------------------------------------------------------------------------|


outro:
|-------------------------------------------|
|-------------------------------------------|
|-------12-\------10\9-9-------12-\---------|
|-------12-\------10\9-9-------12-\-2-2-2-2-|
|-------10-\-------8\7-7-------10-\-2-2-2-2-|
|-0-000------0-000-------0-000------0-0-0-0-|
  * ***      * ***       * ***      * * *


solo rhythm:
|------------------------------------|
|------------------------------------|
|---------------7-----5----4---------|
|-2-----5-/-\---7-----5----5---------|
|-2-----5-/-\---5-----3----2---------|
|-0---2-3-/-\------------------5-3-2-|
                               * * *


intro

verse  [6x]

bridge [4x]
alt verse

verse  [3x]

chorus [2x]

outro  [2x]

solo   [2x]

bridge [4x]
alt verse

verse  [3x]

chorus [4x]

outro  [8x]
hold last chord
ⓘ Guitar tab for 'V' by Iced Earth, a metal band formed in 1985 from Tampa, USA. Iced Earth is known for their angry rock/pop music.

Almost there ...

Sign in to get your own page with links to favourite songs and more. You are just one click away...

Login with Facebook Login with Google