Log in

One click and you are in

Login with Facebook Login with Google

Why sign up and log in

Guitar Tabs Explorer
Iced Earth tabs for Soylent green

Guitar tabs

transcription: Myke Havoc
plannineproductions@hotmail.com

 intro/outro:
|---------------------------|---------------------------|
|---------------------------|---------------------------|
|---------------------------|---------------------------|
|----5--7--9--10--9--7--577-|----7--9--7--10--9--7--799-|
|-777-77-77-77--77-77-77----|-666-66-66-66--66-66-66----|
|---------------------------|---------------------------|
   ** ** ** **  ** ** **       ** ** ** **  ** ** **

 intro/outro cont'd:
|--------------------------|--------------------------|
|--------------------------|--------------------------|
|--------------------------|-------------4------------|
|----4--5--4--7--5--4--455-|----5--7--5-----7--5--54--|
|-555-55-55-55-55-55-55----|-444-44-44-44-44-44-44--5-|
|--------------------------|--------------------------|
   ** ** ** ** ** ** **       ** ** ** ** ** ** **

 verse:                                  bridge:
|------------------|------------------| |---------------|--------------|---------------|
|------------------|------------------| |---------------|--------------|---------------|
|------------------|--------------5-4-| |---2-----------|--------------|---2-----------|
|-2------------4-5-|-2------------5-5-| |---2---5---4---|-2------------|---2---5---4---|
|-2-------[3x]-5-5-|-2-------[3x]-3-2-| |---0---5---5---|-2-------[4x]-|---0---5---5---|
|-0-00000------2-3-|-0-00000----------| |-------3---2---|-0-00000------|-------3---2---|
    *****              *****                                *****

 chorus:
|-------------------------------------------------------------------------------------|
|-------------------------------------------------------------------------------------|
|-------------------------------------------------------------------------------------|
|-5-\------------------5-\------------------4-\------------------4-\------------------|
|-7-\------------------6-\------------------5-\------------------4-\------------------|
+-----0-0000-0-0-0-0-0-----0-0000-0-0-0-0-0-----0-0000-0-0-0-0-0-----0-0000-0-0-0-0-0-+
|     * **** * * * * *     * **** * * * * *     * **** * * * * *     * **** * * * * * |
|                                                                                     |
+------3-00-5-00-7-00-------3-00-5-00-7-00-------3-00-5-00-3-00-------2-00-3-00-2-00--|
|-5-00-----------------4-00-----------------3-00-----------------2-00-----------------|
|-------------------------------------------------------------------------------------|
|-------------------------------------------------------------------------------------|
|-------------------------------------------------------------------------------------|
|-------------------------------------------------------------------------------------|
  pm------------------------------------------------------------------------------->

 end:
|--------------------|------------------|
|--------------------|------------------|
|--------------------|------------------|
|-2------------4-5-5-|-2----------------|
|-2-------[3x]-5-5-5-|-2----------------|
|-0-00000------2-3-3-|-0----------------|
    *****

<songflow>

intro  [3x]

verse  [2x]

bridge

verse  [2x]

bridge

chorus [4x]

verse  [2x]

bridge

verse  [2x]

bridge

chorus [4x]

outro  [4x]

ⓘ Guitar tab for 'Soylent Green' by Iced Earth, a metal band formed in 1985 from Tampa, USA. Iced Earth is known for their angry rock/pop music.

Almost there ...

Sign in to get your own page with links to favourite songs and more. You are just one click away...

Login with Facebook Login with Google