Log in

One click and you are in

Login with Facebook Login with Google

Why sign up and log in

Guitar Tabs Explorer
Iced Earth tabs for December

Guitar tabs

Band: Iced Earth
(i maffia tis mirmigo foljàs)


Tuning: A chord diagramEb MajorEb A chord diagramAbAb A chord diagramDbDb A chord diagramGbGb A chord diagramBb majorBb eb
Intro
eb:------------------------------------------------------||
Bb:------0---0--------0---0----------0------------0------||
Gb:--------0---0--------0---0------0---0--------0---0----||
Db:------------------------------7-------7----7-------7--||
Ab:----7------------7----------8------------8------------||
Eb:--0------------0--------------------------------------||

Rhythm 1
eb:-------------------------------------||
Bb:-------------------------------------||
Gb:-------------------------------------||
Db:-------------------------------------||
Ab:--22------22------22-----------------||
Eb:--00-0-00-00-0-00-00-0-00-3333-1111--||
        . ..    . ..    . .. .... ....


Rhythm 2                                 (1st time)    (2nd time)
eb:------------------------------------|-------------|----------||
Bb:------------------------------------|-------------|----------||
Gb:--7/9--------7/9--------7/9---------|-------------|----------||
Db:--7/9--------7/9--------7/9---------|-------------|-------3--||
Ab:--5/7--------5/7--------5/7---------|-------------|-------3--||
Eb:------000000-----000000-----000000--|--3333-1111--|--3333-1--||
         ......     ......     ......     .... ....     ....


Lead 1                                 Rhythm 3
eb:----------------------------------||------------------------------------||
Bb:----------------------------------||------------------------------------||
Gb:----------------------------------||--7/9--------7/9--------7/9---------||
Db:--7/9-9----9\7-7----7/10----10\9--||--7/9--------7/9--------7/9---------||
Ab:--5/7-7-77-7\5-5-55-5/8--88--8\7--||--5/7--------5/7--------5/7---------||
Eb:----------------------------------||------000000-----000000-----000000--||
                                             ......     ......     ......

Lead 2
eb:----------------------------||
Bb:----------------------------||
Gb:-11\9----9\6----6/7----7\4--||
Db:--9\7-77-7\4-44-4/5-55-5\2--||
Ab:----------------------------||
Eb:----------------------------||


Solo
eb:-----------------------------------------------------------------10--8--8-8
Bb:----------------------12--10--10-10-10-12-8--12--12-12-12-13-11------------
Gb:--12--12-12-12-14-11-------------------------------------------------------
Db:---------------------------------------------------------------------------
Ab:---------------------------------------------------------------------------
Eb:---------------------------------------------------------------------------


-8-10-9--12--12-12-12-13-10--15--13--13-13-13-15-12----------------------10
-----------------------------------------------------12--12-12-12-13-10----
---------------------------------------------------------------------------
---------------------------------------------------------------------------
---------------------------------------------------------------------------
---------------------------------------------------------------------------


--8--8-10-12\--||
---------------||
---------------||
---------------||
---------------||
---------------||
ⓘ Guitar tab for 'December' by Iced Earth, a metal band formed in 1985 from Tampa, USA. Iced Earth is known for their angry rock/pop music.

Almost there ...

Sign in to get your own page with links to favourite songs and more. You are just one click away...

Login with Facebook Login with Google