Log in

One click and you are in

Login with Facebook Login with Google

Why sign up and log in

Guitar Tabs Explorer
Iced Earth bass tabs for Dark city

Bass tabs

BAND: ICED EARTH
ALBUM: DYSTOPIA
SONG: DARK CITY

------------------------------------------------------------------------

INTRO I

G--9-9-7-7-7-7-10-12-9-9-9-9----10-9-9-9-9---9-7-7-7-7------------------|
D----------------------------10------------9----------------------------|
A-----------------------------------------------------------------------|
E-----------------------------------------------------------------------|

INTRO II/CHORUS

G-----------------------------------------------------------------------|
D-----------------------------------------------------------------------|
E-----------------------------------------------------------------------|
A-5-5-5-55555555-3-3-3-33333333-5-5-5-55555555-1-1-1-11111111-----------|

VERSE

G-----------------------------------------------------------------------|
D-----------------------------------------------------------------------|
A-----------------------------------------------------------------------|
E-5-5-5-5-5-5-5555-5-5-5-5-5-5-5-5555-8888888877777777------------------|

SOLO

G-----------------------------------------------------------------------|
D-----------------------------------------------------------------------|
A-----------------------------------------------------------------------|
E-5-5-5-5-5-5-5-5-3333-(4X)-7-7-7-7-7-7-7-7-3333-3-3-3-3-3-3-3-3-3333---|

BRIDGE

G-----------------------------------------------------------------------|
D-----------------------------------------------------------------------|
A-0-----------------3--------------------------------1------------------|
E-----------------------------------1-----------------------------------|

G------------------------------------------------------------------------|
D------------------------------------------------------------------------|
A-0000000000000000-3333333333333333------------------111111111111111-----|

ⓘ Bass guitar tab for 'Dark City' by Iced Earth, a metal band formed in 1985 from Tampa, USA. Iced Earth is known for their angry rock/pop music.

Almost there ...

Sign in to get your own page with links to favourite songs and more. You are just one click away...

Login with Facebook Login with Google