Log in

One click and you are in

Login with Facebook Login with Google

Why sign up and log in

Guitar Tabs Explorer
Iced Earth tabs for Anguish of youth (Ver. 2)

Guitar tabs

half-step down

 verse:(acoustic)

|------------------------------|------------------------------|
|------------------------------|------------------------------|
|------------------------------|------------------------------|
|-5---5---5---5---5---5---[2x]-|-4---4---4---4---4---4---[2x]-|
|-7-7-7-7-7-7-7-7-7-7-7-7------|-5-5-5-5-5-5-5-5-5-5-5-5------|
|------------------------------|------------------------------|
 verse cont'd:

|------------------------------|------------------------------|
|------------------------------|------------------------------|
|------------------------------|------------------------------|
|-2---2---2---2---2---2---[2x]-|-2---2---2---2---2---2---[2x]-|
|-3---3---3---3---3---3--------|-2---2---2---2---2---2--------|
|-0-0-0-0-0-0-0-0-0-0-0-0------|-0-0-0-0-0-0-0-0-0-0-0-0------|


 chorus:

|------------|------------|------------|-------------------|
|------------|------------|------------|-------------------|
|------------|------------|------------|-------------------|
|-5-4-5-[2x]-|-4-2-4-[2x]-|-2---2-[2x]-|-2-2-2--------[2x]-|
|-7-5-7------|-5-3-5------|-3-2-3------|-2-0-2-------------|
|------------|------------|---0--------|-0-0-0---0000------|

  * *          * *          * *          * *     ****

 arpeggios:

|---------|------------|------------|----------|
|-8-------|-10---------|-13---------|-12-------|
|---9-----|----11------|----12------|----12----|
|-----9---|-------12---|-------14---|-------14-|
|---------|------------|------------|----------|
|---------|------------|------------|----------|

 solo 1 rhythm:

|-------------------|--------------------|-------------------|------------------|
|-------------------|--------------------|-------------------|------------------|
|-9-7-9-------------|-9-11-7-------------|-5-4-5-------------|------------------|
|-9-7-9--------[2x]-|-9-11-7--------[2x]-|-5-4-5--------[2x]-|-2-2-2-------[2x]-|
|-7-5-7-------------|-7-9--5-------------|-3-2-3-------------|-2-0-2------------|
|---------0000------|----------0000------|---------0000------|-0-0-0---0000-----|

  * *     ****        * *      ****        * *     ****        * *     ****


 lead 1:

|-----------7-----------------------------------------7--------|
|---7-8-------10-8-7---10-8-7-------7-8----10-8-7-------10-8---|
|-9---------------------------9---9---------------9----------9-|
|--------------------------------------------------------------|
|--------------------------------------------------------------|
+--------------------------------------------------------------+

|                                                              |
|harmony:                                                      |

+------7---10-8-7------8-7-------------7---8-7--------10-8-7---+
|-8-10------------10-------10-8---8-10---------10-8----------8-|
|--------------------------------------------------------------|
|--------------------------------------------------------------|
|--------------------------------------------------------------|
|--------------------------------------------------------------|


 lead 2:

|---------------7---------------------------------------------------------7-----------|
|--7-8-7-8-[2x]--10-8-7--7--------7---7-10-8-7---------7-8-7-8-10-8-7-------10-8------|
|-9--------------------9-----7-9----9---------9-7-9--9---------------9-7-9------9-7-9-|
|-------------------------------------------------------------------------------------|
|-------------------------------------------------------------------------------------|
+-------------------------------------------------------------------------------------+

|                                                                                     |
|harmony:                                                                             |

+-----7--7-----10-8-7-------------------8-7--------------7--7--8-7--------10-8-7------+
|-8-10-10--[2x]------10-8-10-7-8-10-8-10---10-8-7-8--8-10-10------10-8-7-8------8-7-8-|
|-------------------------------------------------------------------------------------|
|-------------------------------------------------------------------------------------|
|-------------------------------------------------------------------------------------|
|-------------------------------------------------------------------------------------|




verse             [3x]

chorus            [2x]

verse +arpeggios  [2x]

chorus            [2x]

solo 1

verse +arpeggios  [2x]

chorus +lead 1

chorus +lead 2

chorus +lead 2 w/solo
ⓘ This is the 2nd version of guitar tab for 'Anguish Of Youth' by Iced Earth, a metal band formed in 1985 from Tampa, USA. Iced Earth is known for their angry rock/pop music.

Other versions of Anguish Of Youth

Anguish of youthTabs

Almost there ...

Sign in to get your own page with links to favourite songs and more. You are just one click away...

Login with Facebook Login with Google