Log in

One click and you are in

Login with Facebook Login with Google

Why sign up and log in

Guitar Tabs Explorer
Ice Nine Kills bass tabs for The shower scene

Bass tabs

Key: F

🎸 Verse 1:

D|-----------------------------------------------------------------|
A|-----------------------------------------------------------------|
E|-----------------------------------------------------------------|
A|-5---5---5-5-5-5-5---5---5-5-5-5-5---5---5-5-5-5-5---5---5-5-5-5-|
  1 + 2 + 3 + 4 + 1 + 2 + 3 + 4 + 1 + 2 + 3 + 4 + 1 + 2 + 3 + 4 +

D|-----------------------------------------------------------------|
A|-----------------------------------------------------------------|
E|-----------------------------------------------------------------|
A|-5---5---5-5-5-5-5---5---5-5-5-5-5---5---5-5-5-5-5---5---5-5-5-5-|
  1 + 2 + 3 + 4 + 1 + 2 + 3 + 4 + 1 + 2 + 3 + 4 + 1 + 2 + 3 + 4 +

D|-----------------------------------------------------------------|
A|-----------------------------------------------------------------|
E|-----------------------------------------------------------------|
A|-5---5---5-5-5-5-5---5---5-5-5-5-5---5---5-5-5-5-5---------------|
  1 + 2 + 3 + 4 + 1 + 2 + 3 + 4 + 1 + 2 + 3 + 4 + 1 + 2 + 3 + 4 +


🎸 Chorus:

D|-------------------------------------------------------------|
A|-------------------------------------------------------------|
E|-------------3-3-3~--------------------------8-8-8-8-8-8-8-8-|
A|-1----1----1/--------5---5-5-5-5-5---5-5-5-5/----------------|
  1 + 2 + 3 + 4 + 1 + 2 e + a 3 e + a 4 e + a 1 + 2 + 3 + 4 +

D|-------------------------------------------------------------|
A|-------------------------------------------------------------|
E|-------------3-3-3~--------------------------8-8-8-8-8-8-8-8-|
A|-1----1----1/--------5---5-5-5-5-5---5-5-5-5/----------------|
  1 + 2 + 3 + 4 + 1 + 2 e + a 3 e + a 4 e + a 1 + 2 + 3 + 4 +

D|-----------------------------------------------------------------|
A|-----------------------------------------------------------------|
E|-3~--3-3-3-3-3-3-6~--6-6-6-6-6-6---------------------------------|
A|---------------------------------5~--5-5-5-5-5-5-3~--3-3-3-3-3-3-|
  1 + 2 + 3 + 4 + 1 + 2 + 3 + 4 + 1 + 2 + 3 + 4 + 1 + 2 + 3 + 4 +

D|-------------------------------------------------------------|
A|-------------------------------------------------------------|
E|-------------3-3-3~--------------------------8-8-8-8-8-8-8-8-|
A|-1----1----1/--------5---5-5-5-5-5---5-5-5-5/----------------|
  1 + 2 + 3 + 4 + 1 + 2 e + a 3 e + a 4 e + a 1 + 2 + 3 + 4 +

🎸 Verse 2:

D|-----------------------------------------------------------------|
A|-----------------------------------------------------------------|
E|-----------------------------------------------------------------|
A|-5---5---5-5-5-5-5---5---5-5-5-5-5---5---5-5-5-5-5---5---5-------|
  1 + 2 + 3 + 4 + 1 + 2 + 3 + 4 + 1 + 2 + 3 + 4 + 1 + 2 + 3 + 4 +

D|-----------------------------------------------------------------|
A|-----------------------------------------------------------------|
E|-----------------------------------------------------------------|
A|-5-5---5-5-5---5-5-5---5-5-5-----5-5---5-5-5---5-5-5---5-5-------|
  1 + 2 + 3 + 4 + 1 + 2 + 3 + 4 + 1 + 2 + 3 + 4 + 1 + 2 + 3 + 4 +

D|-----------------------------------------------------------------|
A|-----------------------------------------------------------------|
E|---------------------------------5---5-5-5---4---4-4-------------|
A|-5-5-5-5-5-5-5---5-5-5-5-5-5-5-----------------------------------|
  1 e + a 2 e + a 3 e + a 4 e + a 1 e + a 2 e + a 3 e + a 4 e + a

D|-----------------------------------------------------------------|
A|-----------------------------------------------------------------|
E|-----------------------------------------------------------------|
A|-1-1-1-1-1-1-1-1-1-1-1-1-1-1-1-1-0-0-0-0-0-0-0-0-0-0-0-0-0-0-0-0-|
  1 + 2 + 3 + 4 + 1 + 2 + 3 + 4 + 1 e + a 2 e + a 3 e + a 4 e + a


🎸 Chorus:

D|-------------------------------------------------------------|
A|-------------------------------------------------------------|
E|-------------3-3-3~--------------------------8-8-8-8-8-8-8-8-|
A|-1----1----1/--------5---5-5-5-5-5---5-5-5-5/----------------|
  1 + 2 + 3 + 4 + 1 + 2 e + a 3 e + a 4 e + a 1 + 2 + 3 + 4 +

D|-------------------------------------------------------------|
A|-------------------------------------------------------------|
E|-------------3-3-3~--------------------------8-8-8-8-8-8-8-8-|
A|-1----1----1/--------5---5-5-5-5-5---5-5-5-5/----------------|
  1 + 2 + 3 + 4 + 1 + 2 e + a 3 e + a 4 e + a 1 + 2 + 3 + 4 +

D|-----------------------------------------------------------------|
A|-----------------------------------------------------------------|
E|-3~--3-3-3-3-3-3-6~--6-6-6-6-6-6---------------------------------|
A|---------------------------------5~--5-5-5-5-5-5-3~--3-3-3-3-3-3-|
  1 + 2 + 3 + 4 + 1 + 2 + 3 + 4 + 1 + 2 + 3 + 4 + 1 + 2 + 3 + 4 +

D|-------------------------------------------------------------|
A|-------------------------------------------------------------|
E|-------------3-3-3~--------------------------8-8-8-8-8-8-8-8-|
A|-1----1----1/--------5---5-5-5-5-5---5-5-5-5/----------------|
  1 + 2 + 3 + 4 + 1 + 2 e + a 3 e + a 4 e + a 1 + 2 + 3 + 4 +

D|-----------------------------------------------------------------|
A|-----------------------------------------------------------------|
E|---------------------------3-3-3---------------------------------|
A|-1-1-1-1-1-1-1-1-1-1-1-1-1-------5-5-5-5-5-5-5-5-3-3-3-3-3-3-3-3-|
  1 + 2 + 3 + 4 + 1 + 2 + 3 + 4 + 1 + 2 + 3 + 4 + 1 + 2 + 3 + 4 +

D|-----------------------------------------------------------------|
A|-----------------------------------------------------------------|
E|---------------------------3-3-3---------------------------------|
A|-1-1-1-1-1-1-1-1-1-1-1-1-1-------5-5-5-5-5-5-5-5-3-3-3-3-1-1-1-1-|
  1 + 2 + 3 + 4 + 1 + 2 + 3 + 4 + 1 + 2 + 3 + 4 + 1 + 2 + 3 + 4 +


🎸 Bridge:

D|-----------------------------------------------------------------|
A|-----------------------------------------------------------------|
E|-----------------------------------------------------------------|
A|-5-5-5---------------------------5~--5-5-5-----------------------|
  1 + 2 + 3 + 4 + 1 + 2 + 3 + 4 + 1 + 2 + 3 + 4 + 1 + 2 + 3 + 4 +

D|-----------------------------------------------------------------|
A|-----------------------------------------------------------------|
E|-----------------------------------------------------------------|
A|-5-5-5---5---5-5-5-5-------------5-5-5---5---5-5-5-5---5-5-5-----|
  1 e + a 2 e + a 3 e + a 4 e + a 1 e + a 2 e + a 3 e + a 4 e + a

D|-----------------------------------------------------------------|
A|-----------------------------------------------------------------|
E|-----------------------------------------------------------------|
A|-5-5-5---5---5-5-5-5-------------5-5-5---5---5-5-5-5---5-5-5-----|
  1 e + a 2 e + a 3 e + a 4 e + a 1 e + a 2 e + a 3 e + a 4 e + a

D|-----------------------------------------------------------------|
A|-----------------------------------------------------------------|
E|-----------------------------------------------------------------|
A|-5/1~----4/0~----5/1~----4/0~----5/1~----4/0~----5--3--1-3--1--0-|
  1 + 2 + 3 + 4 + 1 + 2 + 3 + 4 + 1 + 2 + 3 + 4 + 1 + 2 + 3 + 4 +

D|-----------------------------------------------------------------|
A|-----------------------------------------------------------------|
E|-----------------------------------------------------------------|
A|-5~--------------------------------------------------------------|
  1 + 2 + 3 + 4 + 1 + 2 + 3 + 4 + 1 + 2 + 3 + 4 + 1 + 2 + 3 + 4 +

🎸 Chorus:

D|-------------------------------------------------------------|
A|-------------------------------------------------------------|
E|---------------------------------------------8-8-8-8-8-8-8-8-|
A|---------------------5---5-5-5-5-5---5-5-5-5/----------------|
  1 + 2 + 3 + 4 + 1 + 2 e + a 3 e + a 4 e + a 1 + 2 + 3 + 4 +

D|-------------------------------------------------------------|
A|-------------------------------------------------------------|
E|-------------3-3-3~--------------------------8-8-8-8-8-8-8-8-|
A|-1----1----1/--------5---5-5-5-5-5---5-5-5-5/----------------|
  1 + 2 + 3 + 4 + 1 + 2 e + a 3 e + a 4 e + a 1 + 2 + 3 + 4 +

D|-----------------------------------------------------------------|
A|-----------------------------------------------------------------|
E|-3~--3-3-3-3-3-3-6~--6-6-6-6-6-6---------------------------------|
A|---------------------------------5~--5-5-5-5-5-5-3~--3-3-3-3-3-3-|
  1 + 2 + 3 + 4 + 1 + 2 + 3 + 4 + 1 + 2 + 3 + 4 + 1 + 2 + 3 + 4 +

D|-------------------------------------------------------------|
A|-------------------------------------------------------------|
E|-------------3-3-3~--------------------------8-8-8-8-8-8-8-8-|
A|-1----1----1/--------5---5-5-5-5-5---5-5-5-5/----------------|
  1 + 2 + 3 + 4 + 1 + 2 e + a 3 e + a 4 e + a 1 + 2 + 3 + 4 +

D|-----------------------------------------------------------------|
A|-----------------------------------------------------------------|
E|---------------------------3-3-3---------------------------------|
A|-1-1-1-1-1-1-1-1-1-1-1-1-1-------5-5-5-5-5-5-5-5-3-3-3-3-3-3-3-3-|
  1 + 2 + 3 + 4 + 1 + 2 + 3 + 4 + 1 + 2 + 3 + 4 + 1 + 2 + 3 + 4 +

D|-----------------------------------------------------------------|
A|-----------------------------------------------------------------|
E|---------------------------3-3-3---------------------------------|
A|-1-1-1-1-1-1-1-1-1-1-1-1-1-------5-5-5-5-5-5-5-5-3-3-3-3-3-3-3-3-|
  1 + 2 + 3 + 4 + 1 + 2 + 3 + 4 + 1 + 2 + 3 + 4 + 1 + 2 + 3 + 4 +


🎸 Outro:

D|-----------------------------------------------------------------|
A|-----------------------------------------------------------------|
E|-----------------------------------------------------------------|
A|-5~--------------------------------------------------------------|
  1 + 2 + 3 + 4 + 1 + 2 + 3 + 4 + 1 + 2 + 3 + 4 + 1 + 2 + 3 + 4 +


☠☠☠☠☠☠☠☠☠☠☠☠☠☠☠☠☠☠☠☠☠☠☠☠☠☠☠☠☠☠☠☠☠☠☠☠

| x  Dead note
| /  Slide up
| \  Slide down
| ~  Hold note

☠☠☠☠☠☠☠☠☠☠☠☠☠☠☠☠☠☠☠☠☠☠☠☠☠☠☠☠☠☠☠☠☠☠☠☠

Almost there ...

Sign in to get your own page with links to favourite songs and more. You are just one click away...

Login with Facebook Login with Google