Log in

One click and you are in

Login with Facebook Login with Google

Why sign up and log in

Guitar Tabs Explorer
Ice Nine Kills bass tabs for Ex-mørtis

Bass tabs

Key: F


Intro:

D|-----------------------------------------------------------------|
A|-----------------------------------------------------------------|
E|-----------------------3-6-6-5-5-----------------------3-6-6-5-5-|
A|-5-5---5-5-5---5-5-5-------------5-5---5-5-5---5-5-5-------------|
  1 + 2 + 3 + 4 + 1 + 2 + 3 + 4 + 1 + 2 + 3 + 4 + 1 + 2 + 3 + 4 +

D|-------------------------------------------------------------------|
A|-------------------------------------------------------------------|
E|-----------------------3-6-6-5-5-----------------------------------|
A|-5-5---5-5-5---5-5-5-------------5-5-5-7-7-7-8-8-8p5-5-5-8p7-5-7p5-|
  1 + 2 + 3 + 4 + 1 + 2 + 3 + 4 + 1 e + a 2 e + a 3 e + a 4 e + a
                  Trp  Trp  Trp  Trp   Trp

D|---------------------------------|
A|---------------------------------|
E|---------------------------------|
A|-4-4-4-4-4-4-7-7-7-7-7-7---------|
  1 e + a 2 e + a 3 e + a 4 e + a
  Trp  Trp  Trp  Trp


Verse 1:

D|-----------------------------------------------------------------|
A|-----------------------------------------------------------------|
E|-----------------------------------------------------------------|
A|-5---5---5---5---5---5---1---0---5---5---5---5---5---5---1---0---|
  1 + 2 + 3 + 4 + 1 + 2 + 3 + 4 + 1 + 2 + 3 + 4 + 1 + 2 + 3 + 4 +

D|-----------------------------------------------------------------|
A|-----------------------------------------------------------------|
E|-----------------------3-6-6-5-5-6-6-6-6-5~--6-5-----6~--6-6~--6-|
A|-5-5---5-5-5---5-5-5---------------------------------------------|
  1 + 2 + 3 + 4 + 1 + 2 + 3 + 4 + 1 + 2 + 3 + 4 + 1 + 2 + 3 + 4 +

D|-------------------------------------------------|
A|-------------------------------------------------|
E|-5~------3-5~--------6~--6-6---6-5--5--5-5--5--5-|
A|-------------------------------------------------|
  1 + 2 + 3 + 4 + 1 + 2 + 3 + 4 + 1 + 2 + 3 + 4 +
                   Trp   Trp

Chorus:

D|-----------------------------------------------------------------|
A|-----------------------------------------------------------------|
E|-----------------------------------------------------------------|
A|-5---5---5---5---5---5---5---5---1---1---1---1---1---1---1---1---|
  1 + 2 + 3 + 4 + 1 + 2 + 3 + 4 + 1 + 2 + 3 + 4 + 1 + 2 + 3 + 4 +

D|-----------------------------------------------------------------|
A|-----------------------------------------------------------------|
E|-3---3---3---3---3---3---3---3-----------------------------------|
A|---------------------------------5-5---5-5-5---4~--4-4---4-4-----|
  1 + 2 + 3 + 4 + 1 + 2 + 3 + 4 + 1 + 2 + 3 + 4 + 1 + 2 + 3 + 4 +


Pre-Verse:

D|-------------------------------------------------------------------|
A|-------------------------------------------------------------------|
E|-----------------------3-6-6-5-5-----------------------------------|
A|-5-5---5-5-5---5-5-5-------------5-5-5-7-7-7-8-8-8p5-5-5-8p7-5-7p5-|
  1 + 2 + 3 + 4 + 1 + 2 + 3 + 4 + 1 e + a 2 e + a 3 e + a 4 e + a
                  Trp  Trp  Trp  Trp   Trp

D|---------------------------------|
A|---------------------------------|
E|---------------------------------|
A|-4-4-4-4-4-4-7-7-7-7-7-7---------|
  1 e + a 2 e + a 3 e + a 4 e + a
  Trp  Trp  Trp  Trp


Verse 2:

D|------------------------------------------------------------------|
A|------------------------------------------------------------------|
E|------------------------------------------------------------------|
A|-5----5--5----5--5----5--5----5--5----5--5----1--1----0--0--------|
  1 e + a 2 e + a 3 e + a 4 e + a 1 e + a 2 e + a 3 e + a 4 e + a

D|------------------------------------------------------------------|
A|------------------------------------------------------------------|
E|------------------------------------------------------------------|
A|-5----5--5----5--5----5--5----5--5----5--5----1--1----0--0--------|
  1 e + a 2 e + a 3 e + a 4 e + a 1 e + a 2 e + a 3 e + a 4 e + a

D|-----------------------------------------------------------------|
A|-----------------------------------------------------------------|
E|-----------------------3-6-6-5-5-6-6-6-6-5~--6-5-----6~--6-6~--6-|
A|-5-5---5-5-5---5-5-5---------------------------------------------|
  1 + 2 + 3 + 4 + 1 + 2 + 3 + 4 + 1 + 2 + 3 + 4 + 1 + 2 + 3 + 4 +

D|-------------------------------------------------|
A|-------------------------------------------------|
E|-5~------3-5~--------6~--6-6---6-5--5--5-5--5--5-|
A|-------------------------------------------------|
  1 + 2 + 3 + 4 + 1 + 2 + 3 + 4 + 1 + 2 + 3 + 4 +
                   Trp   Trp


Chorus:

D|-----------------------------------------------------------------|
A|-----------------------------------------------------------------|
E|-----------------------------------------------------------------|
A|-5---5---5---5---5---5---5---5---1---1---1---1---1---1---1---1---|
  1 + 2 + 3 + 4 + 1 + 2 + 3 + 4 + 1 + 2 + 3 + 4 + 1 + 2 + 3 + 4 +

D|-----------------------------------------------------------------|
A|-----------------------------------------------------------------|
E|-3---3---3---3---3---3---3---3-----------------------------------|
A|---------------------------------5-5---5-5-5---4~--4-4---4-4-----|
  1 + 2 + 3 + 4 + 1 + 2 + 3 + 4 + 1 + 2 + 3 + 4 + 1 + 2 + 3 + 4 +

D|-----------------------------------------------------------------|
A|-----------------------------------------------------------------|
E|-----------------------------------------------------------------|
A|-5---5---5---5---5---5---5---5---1---1---1---1---1---1---1---1---|
  1 + 2 + 3 + 4 + 1 + 2 + 3 + 4 + 1 + 2 + 3 + 4 + 1 + 2 + 3 + 4 +

D|-----------------------------------------------------------------|
A|-----------------------------------------------------------------|
E|-3---3---3---3---3---3---3---3-----------------------------------|
A|---------------------------------5-5---5-5-5---4~--4-4---4-4-----|
  1 + 2 + 3 + 4 + 1 + 2 + 3 + 4 + 1 + 2 + 3 + 4 + 1 + 2 + 3 + 4 +


Bridge:

D|-----------------------------------------------------------------|
A|-----------------------------------------------------------------|
E|-6~--------6-6-6-5~--------5-5-5-----------------1~--1-1---1-1-1-|
A|---------------------------------5~--5-5---5-5-5-----------------|
  1 + 2 + 3 + 4 + 1 + 2 + 3 + 4 + 1 + 2 + 3 + 4 + 1 + 2 + 3 + 4 +

D|-----------------------------------------------------------------|
A|-----------------------------------------------------------------|
E|-6~--------6-6-6-5~--------5-5-5-----------------1~--1-1---1-1-1-|
A|---------------------------------5~--5-5---5-5-5-----------------|
  1 + 2 + 3 + 4 + 1 + 2 + 3 + 4 + 1 + 2 + 3 + 4 + 1 + 2 + 3 + 4 +

D|-----------------------------------------------------------------|
A|-----------------------------------------------------------------|
E|-6~--------6-6-6-5--5--5-5---------------------------------------|
A|---------------------------------5---4---5---4---5-5---5-5-------|
  1 + 2 + 3 + 4 + 1 + 2 + 3 + 4 + 1 + 2 + 3 + 4 + 1 + 2 + 3 + 4 +

D|-----------------------------------------------------------------|
A|-----------------------------------------------------------------|
E|-----------------------------------------------------------------|
A|-5---4---5---4---5-5---5-5-------5-5---5-5---5-4-5-5---5-5---5-4-|
  1 + 2 + 3 + 4 + 1 + 2 + 3 + 4 + 1 + 2 + 3 + 4 + 1 + 2 + 3 + 4 +

D|-----------------------------------------------------------------|
A|-----------------------------------------------------------------|
E|-----------------------------------------------------------------|
A|-8b--7b--5b--4b--------------------------------------------------|
  1 + 2 + 3 + 4 + 1 + 2 + 3 + 4 + 1 + 2 + 3 + 4 + 1 + 2 + 3 + 4 +


Chorus:

D|-----------------------------------------------------------------|
A|-----------------------------------------------------------------|
E|-3---3---3---3---3---3---3---3-----------------------------------|
A|---------------------------------5-5---5-5-5---4~--4-4---4-4-----|
  1 + 2 + 3 + 4 + 1 + 2 + 3 + 4 + 1 + 2 + 3 + 4 + 1 + 2 + 3 + 4 +

D|-----------------------------------------------------------------|
A|-----------------------------------------------------------------|
E|-----------------------------------------------------------------|
A|-5---5---5---5---5---5---5---5---1---1---1---1---1---1---1---1---|
  1 + 2 + 3 + 4 + 1 + 2 + 3 + 4 + 1 + 2 + 3 + 4 + 1 + 2 + 3 + 4 +

D|-----------------------------------------------------------------|
A|-----------------------------------------------------------------|
E|-3---3---3---3---3---3---3---3-----------------------------------|
A|---------------------------------5-5---5-5-5---4~--4-4---4-4-----|
  1 + 2 + 3 + 4 + 1 + 2 + 3 + 4 + 1 + 2 + 3 + 4 + 1 + 2 + 3 + 4 +

D|-----------------------------------------------------------------|
A|-----------------------------------------------------------------|
E|-----------------------------------------------------------------|
A|-5---5---5---5---5---5---5---5---1---1---1---1---1---1---1---1---|
  1 + 2 + 3 + 4 + 1 + 2 + 3 + 4 + 1 + 2 + 3 + 4 + 1 + 2 + 3 + 4 +

D|-----------------------------------------------------------------|
A|-----------------------------------------------------------------|
E|-3---3---3---3---3---3---3---3-----------------------------------|
A|---------------------------------5-5---5-5-5---4~--4-4---4-4-----|
  1 + 2 + 3 + 4 + 1 + 2 + 3 + 4 + 1 + 2 + 3 + 4 + 1 + 2 + 3 + 4 +

D|-----------------------------------------------------------------|
A|-----------------------------------------------------------------|
E|-----------------------------------------------------------------|
A|-5---5---5---5---5---5---5---5---1---1---1---1---1---1---1---1---|
  1 + 2 + 3 + 4 + 1 + 2 + 3 + 4 + 1 + 2 + 3 + 4 + 1 + 2 + 3 + 4 +

D|-----------------------------------------------------------------|
A|-----------------------------------------------------------------|
E|-3---3---3---3---3---3---3---3-----------------------------------|
A|---------------------------------5-5---5-5-5---4~--4-4---4-4-----|
  1 + 2 + 3 + 4 + 1 + 2 + 3 + 4 + 1 + 2 + 3 + 4 + 1 + 2 + 3 + 4 +


☠☠☠☠☠☠☠☠☠☠☠☠☠☠☠☠☠☠☠☠☠☠☠☠☠☠☠☠☠☠☠☠☠☠☠☠

| x  Dead note
| h  Hammer-on
| p  Pull-off
| b  Bend
| /  Slide up
| \  Slide down
| ~  Hold note

☠☠☠☠☠☠☠☠☠☠☠☠☠☠☠☠☠☠☠☠☠☠☠☠☠☠☠☠☠☠☠☠☠☠☠☠

Almost there ...

Sign in to get your own page with links to favourite songs and more. You are just one click away...

Login with Facebook Login with Google