Log in

One click and you are in

Login with Facebook Login with Google

Why sign up and log in

Guitar Tabs Explorer
Ic3peak bass tabs for Смерти Больше Нет

Смерти Больше Нет bass tab - Ic3peak

Ic3peak bass tabs for Смерти Больше Нет

Bass tabs

Tuning: Standard (E A D G)


Chorus:

G|--------------------------------------------------------------------------|
D|--2------2----------------------------------------------------------------|
A|---3-2----3-2-------------------------------------------------------------| x9
E|0------0-----0------------------------------------------------------------|
        .
G|--------------------------------------------------------------------------|
D|--2------2----------------------------------------------------------------|
A|---3-2----3-2-------------------------------------------------------------| x1
E|0------0------------------------------------------------------------------|
       .

Verse 1:

G|--------------------------------------------------------------------------|
D|- 2------2----------------------------------------------------------------|
A|- -3-2----3-2-------------------------------------------------------------| x4
E|0------0-----0------------------------------------------------------------|
        .
Rest on " I walk around the city in a black hoodie/Я иду по городу в чёрном худи"
Or play:

G|9/17-16\9--9-17-16--------------------------------------------------------|
D|--------------------------------------------------------------------------|
A|--------------------------------------------------------------------------| x1 (Optional)
E|--------------------------------------------------------------------------|


G|--------------------------------------------------------------------------|
D|--2------2----------------------------------------------------------------|
A|---3-2----3-2-------------------------------------------------------------| x3
E|0------0-----0------------------------------------------------------------|
        .

Bridge:

Rest, come back in at 0:59

G|---------------------------------------------------------------------------|
D|---------------------------------------------------------------------------|
A|0--0---0--0---3--3---2--2--------------------------------------------------| x1
E|---------------------------------------------------------------------------|

Chorus:

G|--------------------------------------------------------------------------|
D|--2------2----------------------------------------------------------------|
A|---3-2----3-2-------------------------------------------------------------| x8
E|0------0-----0------------------------------------------------------------|
        .

Verse 2:

G|--------------------------------------------------------------------------|
D|- 2------2----------------------------------------------------------------|
A|- -3-2----3-2-------------------------------------------------------------| x4
E|0------0-----0------------------------------------------------------------|
        .
Rest on " I walk around the city in a black hoodie/Я иду по городу в чёрном худи"
Or play:

G|9/17-16\9--9-17-16--------------------------------------------------------|
D|--------------------------------------------------------------------------|
A|--------------------------------------------------------------------------| x1 (Optional)
E|--------------------------------------------------------------------------|

G|--------------------------------------------------------------------------|
D|--2------2----------------------------------------------------------------|
A|---3-2----3-2-------------------------------------------------------------| x3
E|0------0-----0------------------------------------------------------------|
        .

Bridge:

G|---------------------------------------------------------------------------|
D|---------------------------------------------------------------------------|
A|0--0---0--0---3--3---2--2--------------------------------------------------| x1
E|---------------------------------------------------------------------------|

G|---------------------------------------------------------------------------|
D|---------------------------------------------------------------------------|
A|0--0-0---0--0-0---3--3-3---2--2-2------------------------------------------| x3
E|---------------------------------------------------------------------------|


Outro:

G|---------------------------------------------------------------------------|
D|---------------------------------------------------------------------------|
A|0~~-----3~~-2~~------------------------------------------------------------| X2
E|---------------------------------------------------------------------------|

************************************

| .  Staccato
| /  Slide up
| \  Slide down
| ~  Vibrato

************************************

Almost there ...

Sign in to get your own page with links to favourite songs and more. You are just one click away...

Login with Facebook Login with Google