Log in

One click and you are in

Login with Facebook Login with Google

Why sign up and log in

Guitar Tabs Explorer
Ian Janis guitar chords for Stars

Guitar chords

Janis Ian: "Stars" from the CD "Up 'til now"

Lyrics from the booklet and from the ear, capo on 1.

It's rather lengthy because I liked to put every detail there!
The rhythm is a bit chaotic, and I wasn't always sure of what to do
with it, but it is probably where part of the beauty of the song
comes from!

Erik Olofsen (olofsen@rullf2.leidenuniv.nl)

 --------3------- | --------2------- | --------1------- | --------0------- |
 ------0---0---0- | ------0---0---0- | ------0---0---0- | ------0---0---0- |
 ----0-------0--- | ----2-------2--- | ----2-------2--- | ----1-------1--- |
 --0------------- | --0------------- | --0------------- | --0------------- |
 ---------------- | ---------------- | ---------------- | ---------------- |
 3--------------- | 2--------------- | 1--------------- | 0--------------- |

Intro

 ---------------- | --------0------- | ---------------- | ----------0----- |
 ------1-------1- | ------1---1---1- | ------0-------0- | --------0---0--- |
 ----2-------2--- | ----2-------2--- | ----0-------2--- | ------0-------0- |
 --2-------2----- | --0------------- | --0-------0----- | ----2----------- |
 0--------------- | ---------------- | ---------------- | --2------------- |
 --------3------- | 2--------------- | 3-------2------- | 0--------------- |
I was ...

 --------------0- | 0-------0------- | --------0------- | ------2-3---2--- |
 ------1-----1--- | --1---1---1---1- | ------1---1---1- | ----1-----1---1- |
 ----2-----2----- | ----2-------2--- | ----2-------2--- | --2------------- |
 --2------------- | ---------------- | --0------------- | 0--------------- |
 0--------------- | ---------------- | ---------------- | ---------------- |
 --------3------- | 3--------------- | 2--------------- | ---------------- |
Except ...

 3-------3------- | --------2------- | --------1------- | --------0------- |
 ------0---0---0- | ------0---0---0- | ------0---0---0- | ------0---0---0- |
 ----0-------0--- | ----2-------2--- | ----2-------2--- | ----1-------1--- |
 --0------------- | --0------------- | --0------------- | --0------------- |
 ---------------- | ---------------- | ---------------- | ---------------- |
 3--------------- | 2--------------- | 1--------------- | 0--------------- |
Stars...
They ...

 --------0------- | --------0------- | --------0------- | --------0------- |
 ------1---1---1- | ------1---1---1- | ------1---1---1- | ------1---1---1- |
 ----2-------2--- | ----2-------2--- | ----2-------2--- | ----2-------2--- |
 --2------------- | --2------------- | --0------------- | --0------------- |
 0--------------- | ---------------- | ---------------- | ---------------- |
 ---------------- | 3--------------- | 2--------------- | 2--------------- |
And ..

 3------- | -------- | -------- | --------0------- |
 ------0- | ------0- | ------0- | ------0---0---0- |
 ----0--- | 2---2--- | 2---2--- | 2---2---1---1--- |
 --0----- | --0----- | --0----- | --0------------- |
 -------- | -------- | -------- | ---------------- |
 3------- | 2------- | 1------- | 0--------------- |
Hey ...

 --------0------- | --------0------- | --------0------- | 2-------0---2--- |
 ------1---1---1- | ------1---1---1- | ------1---1---1- | --1---1---1---1- |
 ----2-------2--- | ----2-------2--- | ----2-------2--- | ----2----------- |
 --2------------- | --2------------- | --0------------- | --------0------- |
 0--------------- | ---------------- | ---------------- | ---------------- |
 ---------------- | 3--------------- | 2--------------- | ---------------- |
We ...

 3-------3------- | --------2------- | --------1------- | --------0------- |
 ------0---0---0- | ------0---0---0- | ------0---0---0- | ------0---0---0- |
 ----0-------0--- | ----2-------2--- | ----2-------2--- | 1---1-------1--- |
 --0------------- | --0------------- | --0------------- | --0------------- |
 ---------------- | ---------------- | ---------------- | ---------------- |
 3--------------- | 2--------------- | 1--------------- | 0--------------- |
People ..

 --------0------- | --------0------- | --------0------- | --------0------- |
 ------1---1---1- | ------1---1---1- | ------1---1---1- | ------1---1---1- |
 ----2-------2--- | ----2-------2--- | ----2-------2--- | ----2-------2--- |
 --2------------- | --2------------- | --0------------- | --0------------- |
 0--------------- | ---------------- | ---------------- | ---------------- |
 ---------------- | 3--------------- | 2--------------- | 2--------------- |
and ....
some ...

 -------- | -------- | -------- | -------- |
 0-----0- | ------0- | ------0- | ------0- |
 ----0--- | 2---2--- | 2---2--- | 1---1--- |
 --0----- | --0----- | --0----- | --0----- |
 -------- | -------- | -------- | -------- |
 3------- | 2------- | 1------- | 0------- |
But ...

 --------0------- | --------0------- | --------0------- | 2-------3---2--- |
 ------1---1---1- | ------1---1---1- | ------1---1---1- | --1---1---1---1- |
 ----2-------2--- | ----2-------2--- | ----2-------2--- | ----2----------- |
 --2------------- | --2------------- | --0------------- | 0--------------- |
 0--------------- | ---------------- | ---------------- | ---------------- |
 ---------------- | 3--------------- | 2--------------- | ---------------- |
They ...

 -------- | -------- | -------- | -------- |
 0-----0- | ------0- | ------0- | ------0- |
 ----0--- | 2---2--- | 2---2--- | 1---1--- |
 --0----- | --0----- | --0----- | --0----- |
 -------- | -------- | -------- | -------- |
 3------- | 2------- | 1------- | 0------- |
Some ...

 --------0------- | --------0------- | --------0------- | 2-------3---2--- |
 ------1---1---1- | ------1---1---1- | ------1---1---1- | --1---1---1---1- |
 ----2-------2--- | ----2-------2--- | ----2-------2--- | ----2----------- |
 --2------------- | --2------------- | --0------------- | 0-------0---0--- |
 0--------------- | ---------------- | ---------------- | ---------------- |
 ---------------- | 3--------------- | 2--------------- | ---------------- |
and ...

 ---------------- | ---------------- | ---------------- | --------0------- |
 ------0-------0- | ------0-------0- | ------1-------1- | ------1---1---1- |
 ----0---2---2--- | 2---2---1---1--- | ----2-------2--- | ----2-------2--- |
 --0-------0----- | --0-------0----- | --2-------2----- | --0------------- |
 ---------------- | ---------------- | 0--------------- | ---------------- |
 3-------2------- | 1-------0------- | --------3------- | 2--------------- |
But ..
or the ..

 ---------------- | --------------0- | ------0-----0--- | ------2-3---2--- |
 ----0-------0--- | ----0-------0--- | ----0---0-----0- | ----1-----1---1- |
 --0---0---0---0- | --0---0---0----- | ----------0----- | --2------------- |
 2-------1------- | 0--------------- | --2------------- | 0--------------- |
 ---------------- | --------4------- | 3--------------- | ---------------- |
 ---------------- | ---------------- | ---------------- | ---------------- |
That ..
You ..

 3-------3------- | --------2------- | --------1------- | --------0------- |
 ------0---0---0- | ------0---0---0- | ------0---0---0- | ------0---0---0- |
 ----0-------0--- | ----2-------2--- | ----2-------2--- | ----1-------1--- |
 --0------------- | --0------------- | --0------------- | --0------------- |
 ---------------- | ---------------- | ---------------- | ---------------- |
 3--------------- | 2--------------- | 1--------------- | 0--------------- |
Perhaps ..
that ..

 --------0------- | --------0------- | --------0------- | --------0------- |
 ------1---1---1- | ------1---1---1- | ------1---1---1- | ------1---1---1- |
 ----2-------2--- | ----2-------2--- | ----2-------2--- | ----2-------2--- |
 --2------------- | --2------------- | --0------------- | --0------------- |
 0--------------- | ---------------- | ---------------- | ---------------- |
 ---------------- | 3--------------- | 2--------------- | 2--------------- |
Or ...

 -------- | -------- | -------- | -------- |
 0-----0- | ------0- | ------0- | ------0- |
 ----0--- | 2---2--- | 2---2--- | 1---1--- |
 --0----- | --0----- | --0----- | --0----- |
 -------- | -------- | -------- | -------- |
 3------- | 2------- | 1------- | 0------- |
Some ..
(Perhaps ..

 --------0------- | --------0------- | --------0------- | 2-------0---2--- |
 ------1---1---1- | ------1---1---1- | ------1---1---1- | --1---1---1---1- |
 ----2-------2--- | ----2-------2--- | ----2-------2--- | ----2----------- |
 --2------------- | --2------------- | --0------------- | 0-------0---0--- |
 0--------------- | ---------------- | ---------------- | ---------------- |
 ---------------- | 3--------------- | 2--------------- | ---------------- |
or ...

 3-------3------- | --------2------- | --------1------- | --------0------- |
 ------0---0---0- | ------0---0---0- | ------0---0---0- | ------0---0---0- |
 ----0-------0--- | ----2-------2--- | ----2-------2--- | 2---2---1---1--- |
 --0------------- | --0------------- | --0------------- | --0------------- |
 ---------------- | ---------------- | ---------------- | ---------------- |
 3--------------- | 2--------------- | 1--------------- | 0--------------- |
Stars, ..
They ..

 --------0------- | --------0------- | --------0------- | 0-------0------- |
 ------1---1---1- | ------1---1---1- | ------1---1---1- | ------1---1---1- |
 ----2-------2--- | ----2-------2--- | ----2-------2--- | ----2-------2--- |
 --2------------- | --2------------- | --0------------- | --0------------- |
 0--------------- | ---------------- | ---------------- | ---------------- |
 ---------------- | 3--------------- | 2--------------- | 2--------------- |
And ..

 -------- | -------- | -------- | -------- |
 0-----0- | ------0- | ------0- | ------0- |
 ----0--- | 2---2--- | 2---2--- | 1---1--- |
 --0----- | --0----- | --0----- | --0----- |
 -------- | -------- | -------- | -------- |
 3------- | 2------- | 1------- | 0------- |
But ..

 --------0------- | --------0------- | --------0------- | --------0------- |
 ------1---1---1- | ------1---1---1- | ------1---1---1- | 1-----1---1---1- |
 ----2-------2--- | ----2-------2--- | ----2-------2--- | ----2-------2--- |
 --2------------- | --2------------- | --0------------- | --0------------- |
 0--------------- | ---------------- | ---------------- | ---------------- |
 ---------------- | 3--------------- | 2--------------- | 2--------------- |
They ..

 -------- | -------- | ---------------- | --------0------- |
 0-----0- | ------0- | ------0-------0- | ------0---0---0- |
 ----0--- | 2---2--- | 2---2---2---2--- | 1---1-------1--- |
 --0----- | --0----- | --0-------0----- | --0------------- |
 -------- | -------- | ---------------- | ---------------- |
 3------- | 2------- | 1--------------- | 0--------------- |
Some ..
and so ..

 --------0------- | --------0------- | --------0------- | ------0--------- |
 ------1---1---1- | 1-----1---1---1- | 1-----1---1---1- | 1---1---1---0-1- |
 ----2-------2--- | ----2-------2--- | ----2-------2--- | --2-------2----- |
 --2------------- | --2------------- | --0------------- | 0--------------- |
 0--------------- | ---------------- | ---------------- | ---------------- |
 ---------------- | 3--------------- | 2--------------- | ---------------- |
Some ..

 -------- | -------- | -------- | --------0------- |
 ------0- | ------0- | ------0- | ------0---0---0- |
 ----0--- | 2---2--- | 2---2--- | ----1-------1--- |
 --0----- | --0----- | --0----- | --0------------- |
 -------- | -------- | -------- | ---------------- |
 3------- | 2------- | 1------- | 0--------------- |
Some ..

 --------0------- | --------0------- | --------0------- |
 ------1---1---1- | ------1---1---1- | 1-----1---1---1- |
 ----2-------2--- | ----2-------2--- | ----2-------2--- |
 --2------------- | --2------------- | --0------------- |
 0--------------- | ---------------- | ---------------- |
 ---------------- | 3--------------- | 2--------------- |
I guess ..

 ---------------- | ---------------- | ---------------- | --------0------- |
 ------0-------0- | ------0-------0- | ------1-------1- | ------1---1---1- |
 ----0---2---2--- | 2---2---1---1--- | ----2-------2--- | ----2-------2--- |
 --0-------0----- | --0-------0----- | --2-------2----- | --0------------- |
 ---------------- | ---------------- | 0--------------- | ---------------- |
 3-------2------- | 1-------0------- | --------3------- | 2--------------- |
But I ..
And I ..

 -------- | -------- | -------- | --------0------- |
 0-----0- | ------0- | ------0- | ------0---0---0- |
 ----0--- | 2---2--- | 2---2--- | ----1-------1--- |
 --0----- | --0----- | --0----- | --0------------- |
 -------- | -------- | -------- | ---------------- |
 3------- | 2------- | 1------- | 0--------------- |
I ...

 --------0------- | --------0------- | --------0------- |
 ------1---1---1- | ------1---1---1- | ------1---1---1- |
 ----2-------2--- | ----2-------2--- | ----2-------2--- |
 --2------------- | --2------------- | --0------------- |
 0--------------- | ---------------- | ---------------- |
 ---------------- | 3--------------- | 2--------------- |
Except ..

 -------- | -------- | -------- | ------0-----0--- |
 ----0--- | ----0--- | ----0--- | ----0---0-----0- |
 --0---0- | --0---0- | --0---0- | --0-------0----- |
 2------- | 1------- | 0------- | ---------------- |
 -------- | -------- | -------- | 4--------------- |
 -------- | -------- | -------- | ---------------- |
But ..

 0--------------- | 3-------2------- |
 0--------------- | 1--------------- |
 0--------------- | 2--------------- |
 2--------------- | 0--------------- |
 3--------------- | ---------------- |
 ---------------- | ---------------- |
I ..

 --------3------- | --------2------- | --------1------- | --------0------- |
 ------0---0---0- | ------0---0---0- | ------0---0---0- | ------0---0---0- |
 ----0-------0--- | ----2-------2--- | ----2-------2--- | 2---2---1---1--- |
 --0------------- | --0------------- | --0------------- | --0------------- |
 ---------------- | ---------------- | ---------------- | ---------------- |
 3--------------- | 2--------------- | 1--------------- | 0--------------- |
Stars, ..
They ..

 --------0------- | --------0------- | --------0------- | 2-------2------- |
 ------1---1---1- | ------1---1---1- | 1-----1---1---1- | --1---1---1---0- |
 ----2-------2--- | ----2-------2--- | ----2-------2--- | ----2-------2--- |
 --2------------- | --2------------- | --0------------- | ---------------- |
 0--------------- | ---------------- | ---------------- | ---------------- |
 ---------------- | 3--------------- | 2--------------- | 2--------------- |
And ...

 -------- | -------- | -------- | -------- |
 ------0- | ------0- | ------0- | ------0- |
 ----0--- | 2---2--- | 2---2--- | 1---1--- |
 --0----- | --0----- | --0----- | --0----- |
 -------- | -------- | -------- | -------- |
 3------- | 2------- | 1------- | 0------- |
But ..

 --------0------- | --------0------- | --------0------- |
 ------1---1---1- | ------1---1---1- | ------1---1---1- |
 ----2-------2--- | ----2-------2--- | ----2-------2--- |
 --2------------- | --2------------- | --0------------- |
 0--------------- | ---------------- | ---------------- |
 ---------------- | 3--------------- | 2--------------- |
And ..

 -------- | -------- | -------- | --------0------- |
 ------0- | ------0- | ------0- | ------0---0---0- |
 ----0--- | 2---2--- | 2---2--- | 2---2---1---1--- |
 --0----- | --0----- | --0----- | --0------------- |
 -------- | -------- | -------- | ---------------- |
 3------- | 2------- | 1------- | 0--------------- |
So ..

 --------0------- | --------0------- | 3--------------- | ---------------- |
 ------1---1---1- | ------1---1---1- | ------0-------0- | ------0-------0- |
 ----2-------2--- | 2---2-------2--- | ----0---2---2--- | 2---2---1---1--- |
 --2------------- | --0------------- | --0-------0----- | --0-------0----- |
 0--------------- | ---------------- | ---------------- | ---------------- |
 ------------3--- | 2--------------- | 3-------2------- | 1-------0------- |
I'll ...

 ---------------- | 0-------2------- | 3--------------- | --------3------- |
 1-----0-1---0-1- | ------1---1---0- | ------0-1---1--- | ------0--------- |
 ----2-----2----- | ----2-------2--- | ----0-----0---0- | ----0----------- |
 --2------------- | --0------------- | --0-----0---0--- | --0------------- |
 0--------------- | ---------------- | ---------------- | ---------------- |
 ---------------- | 2--------------- | 3--------------- | 3--------------- |
End

Almost there ...

Sign in to get your own page with links to favourite songs and more. You are just one click away...

Login with Facebook Login with Google