GuitarTabsExplorer icon
GuitarTabsExplorer icon

Log in

Songbook

  • Log in to add and see bookmarks

Last visited songs

  • No songs visited yet...
Hit Me With Your Rhythm Stick by Ian Dury And The Blockheads

Hit Me With Your Rhythm Stick bass tab by Ian Dury And The Blockheads

Bass tabs

Hit Me with Your Rhythm Stick

Ian Dury And The Blockheads

Intro/Bridge
G---------------------------------------------|
D----3--1-1-----------------------------------|
A------------3-3--1-1--3-3--1-1--3--1---------|
E-1------------------------------------4-1----|

Intro/Bridge Pt.2
G------------------------------8-8--------------|
D----3--1-1---------------6-6-------------------|
A------------3-3--1--8-8------------1-1---3-3---|
E-1---------------------------------------------|

Verse
G-----10-8-8--------------------------------------------------------4---3----------------|
D------------10-10-8-8-6-6-----5-5-6-6---------------------6------6---6---6-4---4-4-5-6--|
A-1/8----------------------8-8---------8-8-6-6-----6-6-8-8---8-6-4------------6----------|
E----------------------------------------------8-8---------------------------------------|

Pre-Chorus      Chorus
G------------------|---------------------------------------------| x2
D------------------|------3-------5------7-----5-----------------|
A-5-6-6-6-3-5-6-7~-|---------------------------------------------|
E------------------|--1-1----3-3-----5-5----3-3-----1-1--1-1-----|

Chorus Pt.2
G--------------------------------------------------------------------------------------|
D------3-------5------6------7------8------7------6------5------3----------------------|
A------------------------------------------------------------------1-1---3-3-----------|
E--1-1----3-3----4-4----5-5----6-6----5-5----4-4----3-3----1-1-------------------------|

Intro/Bridge
G---------------------------------------------|
D----3--1-1-----------------------------------|
A------------3-3--1-1--3-3--1-1--3--1---------|
E-1------------------------------------4-1----|

Outro
G-------------------------------8-8----------------|
D----3--1-1----------------6-6---------------------|
A------------3-3--1--8-8-------------1-1--3-3------|
E-1--------------------------------------------1-1-|

Sorry but I don't know the song order but if you know the song well, you should be able
play it in the right order.
Any corrections will be gratefully accepted.

Enjoy :

[ Privacy | About us ]

Welcome to the guitar community

Why join and log in?
- Get songbook with favourite songs
- Get custom made front page
- Submit chords and tabs
- Submit guitar-cover videos
- Get a lot of thumbs up for your work

Songbook

Last visited songs

Site
Home
Search
Community
Submit chords

Video

No video for this page. Check out how you can submit guitar-cover videos here

Search tabs and chords

Browse by artist

A B C D E F G H I J K L M N O P Q R S T U V W X Y Z #


Menu

Search

Video

Bookmark

Login