Log in

One click and you are in

Login with Facebook Login with Google

Why sign up and log in

Guitar Tabs Explorer
Ian And The Zodiacs bass tabs for I need you

Bass tabs

G|----------------------------------------------------------------|
D|7-----------7-------------------7-----------7-------------------| x2
A|----------------7-------7-----------------------7-------7-------|
E|----------------------------------------------------------------|

0:07

G|----------------------------------------------------------------|
D|7-----------7-----------7---------------------------------------|
A|----------------7---------------5-----------5-----------5-------|
E|------------------------------------------------5---------------|

G|----------------------------------------------------------------|
D|7-----------7-------------------7-----------7-------------------|
A|----------------7-------7-----------------------7-------7-------|
E|----------------------------------------------------------------|

G|----------------------------------------------------------------|
D|7-----------7-----------7---------------------------------------|
A|----------------7---------------5-----------5-----------5-------|
E|------------------------------------------------5---------------|

G|----------------------------------------------------------------|
D|7-----------7-------------------7-----------7-----------7-------|
A|----------------7-------7-----------------------7---------------|
E|----------------------------------------------------------------|

0:21

G|----------------------------------------------------------------|
D|4-----------4-----------4---------------------------------------|
A|----------------4---------------4-----------4-----------4-------|
E|------------------------------------------------4---------------|

G|--------------------------------4-----------4-----------4-------|
D|4-----------4-----------4-----------------------4---------------|
A|----------------4-----------------------------------------------|
E|----------------------------------------------------------------|

G|----------------------------------------------------------------|
D|7-----------7-------------------7-----------7-------------------|
A|----------------7-------7-----------------------7-------7-------|
E|----------------------------------------------------------------|

0:32

G|----------------------------------------------------------------|
D|7-----------7-----------7---------------------------------------|
A|----------------7---------------5-----------5-----------5-------|
E|------------------------------------------------5---------------|

G|----------------------------------------------------------------|
D|7-----------7-------------------7-----------7-------------------|
A|----------------7-------7-----------------------7-------7-------|
E|----------------------------------------------------------------|

G|----------------------------------------------------------------|
D|7-----------7-----------7---------------------------------------|
A|----------------7---------------5-----------5-----------5-------|
E|------------------------------------------------5---------------|

G|----------------------------------------------------------------|
D|7-----------7-------------------7-----------7-----------7-------|
A|----------------7-------7-----------------------7---------------|
E|----------------------------------------------------------------|

0:46

G|----------------------------------------------------------------|
D|4-----------4-----------4---------------------------------------|
A|----------------4---------------4-----------4-----------4-------|
E|------------------------------------------------4---------------|

G|--------------------------------4-----------4-----------4-------|
D|4-----------4-----------4-----------------------4---------------|
A|----------------4-----------------------------------------------|
E|----------------------------------------------------------------|

G|----------------------------------------------------------------|
D|7-----------7-------------------7-----------7-----------7-------|
A|----------------7-------7-----------------------7---------------|
E|----------------------------------------------------------------|

0:56

G|----------------------------------------------------------------|
D|----------------------------------------------------------------|
A|5-----------5-----------5-------7-----------7-----------7-------|
E|----------------5-------------------------------7---------------|

G|----------------------------------------------------------------|
D|7-----------7-------------------7-----------7-----------7-------|
A|----------------7-------7-----------------------7---------------|
E|----------------------------------------------------------------|

G|----------------------------------------------------------------|
D|----------------------------------------------------------------|
A|5-----------5-----------5-------7-----------7-----------7-------|
E|----------------5-------------------------------7---------------|

G|--------------------------------|
D|9-----------9-----------9-------|
A|----------------9---------------|
E|--------------------------------|

G|----------------------------------------------------------------|
D|------------------------------------------------4-------6-------|
A|7-----------7---7-----------7---7-----------7-------------------|
E|----------------------------------------------------------------|

1:12

G|----------------------------------------------------------------|
D|7-----------7-----------7---------------------------------------|
A|----------------7---------------5-----------5-----------5-------|
E|------------------------------------------------5---------------|

G|----------------------------------------------------------------|
D|7-----------7-------------------7-----------7-------------------|
A|----------------7-------7-----------------------7-------7-------|
E|----------------------------------------------------------------|

G|----------------------------------------------------------------|
D|7-----------7-----------7---------------------------------------|
A|----------------7---------------5-----------5-----------5-------|
E|------------------------------------------------5---------------|

G|----------------------------------------------------------------|
D|7-----------7-------------------7-----------7-----------7-------|
A|----------------7-------7-----------------------7---------------|
E|----------------------------------------------------------------|

1:26

G|----------------------------------------------------------------|
D|4-----------4-----------4---------------------------------------|
A|----------------4---------------4-----------4-----------4-------|
E|------------------------------------------------4---------------|

G|--------------------------------4-----------4-----------4-------|
D|4-----------4-----------4-----------------------4---------------|
A|----------------4-----------------------------------------------|
E|----------------------------------------------------------------|

G|----------------------------------------------------------------|
D|7-----------7-------------------7-----------7-----------7-------|
A|----------------7-------7-----------------------7---------------|
E|----------------------------------------------------------------|

1:37

G|----------------------------------------------------------------|
D|----------------------------------------------------------------|
A|5-----------5-----------5-------7-----------7-----------7-------|
E|----------------5-------------------------------7---------------|

G|----------------------------------------------------------------|
D|7-----------7-------------------7-----------7-----------7-------|
A|----------------7-------7-----------------------7---------------|
E|----------------------------------------------------------------|

G|----------------------------------------------------------------|
D|----------------------------------------------------------------|
A|5-----------5-----------5-------7-----------7-----------7-------|
E|----------------5-------------------------------7---------------|

G|--------------------------------|
D|9-----------9-----------9-------|
A|----------------9---------------|
E|--------------------------------|

G|----------------------------------------------------------------|
D|------------------------------------------------4-------6-------|
A|7-----------7---7-----------7---7-----------7-------------------|
E|----------------------------------------------------------------|

1:53

G|----------------------------------------------------------------|
D|7-----------7-----------7---------------------------------------|
A|----------------7---------------5-----------5-----------5-------|
E|------------------------------------------------5---------------|

G|----------------------------------------------------------------|
D|7-----------7-------------------7-----------7-------------------|
A|----------------7-------7-----------------------7-------7-------|
E|----------------------------------------------------------------|

G|----------------------------------------------------------------|
D|7-----------7-----------7---------------------------------------|
A|----------------7---------------5-----------5-----------5-------|
E|------------------------------------------------5---------------|

G|----------------------------------------------------------------|
D|7-----------7-------------------7-----------7-----------7-------|
A|----------------7-------7-----------------------7---------------|
E|----------------------------------------------------------------|

2:07

G|----------------------------------------------------------------|
D|4-----------4-----------4---------------------------------------|
A|----------------4---------------4-----------4-----------4-------|
E|------------------------------------------------4---------------|

G|--------------------------------4-----------4-----------4-------|
D|4-----------4-----------4-----------------------4---------------|
A|----------------4-----------------------------------------------|
E|----------------------------------------------------------------|

G|----------------------------------------------------------------|
D|7-----------7-------------------7-----------7-----------7-------|
A|----------------7-------7-----------------------7---------------|
E|----------------------------------------------------------------|

2:17

G|----------------------------------------------------------------|
D|4-----------4-------------------4-----------4-----------4-------|
A|----------------4-------4-----------------------4---------------|
E|----------------------------------------------------------------|

G|----------------------------------------------------------------|
D|----------------------------------------------------------------|
A|5-----------5-------------------5-----------5-----------5-------|
E|----------------5-------5-----------------------5---------------|

G|--------------------------------------------|
D|7-----------7-------------------7-------7---|
A|----------------7-------7-------------------|
E|--------------------------------------------|

Almost there ...

Sign in to get your own page with links to favourite songs and more. You are just one click away...

Login with Facebook Login with Google