Log in

One click and you are in

Login with Facebook Login with Google

Why sign up and log in

Guitar Tabs Explorer
I The Mighty bass tabs for Lady of death

Bass tabs

Tuning: B Tuning (B E A D)


Intro/Verse:

D|-------------------------------------|
A|-------------------------------------|
E|5-5----------------------5-5---------|
B|-----0-0--2--0-0-2-4-2--------0-0--2\|

D|-----------------------------------------------|
A|-----------------------------------------------|
E|5-5----------------------5-5-------------------|
B|-----0-0--2--0-0-2-4-2--------0-0--2--0-0-2-4-2|

D|-------------------------------------|
A|-------------------------------------|
E|5-5----------------------5-5---------|
B|-----0-0--2--0-0-2-4-2--------0-0--2\|

D|-----------------------------------------------|
A|-----------------------------------------------|
E|5-5----------------------5-5-------------------|
B|-----0-0--2--0-0-2-4-2--------0-0--2--0-0-2-4-2|


Pre Chorus:

D|-----------------------------------------------------------------------------------------------|
A|--------------------------------4-4-4-4-4-4-4-4-2-2-2-2-2-2-2-2--------------------------------|
E|5-5-5-5-5-5-5-5-5-5-5-5-5-5-5-5---------------------------------2-2-2-2-2-2-2-2-2-2-2-2-4-4-4-4|
B|-----------------------------------------------------------------------------------------------|


[Chorus}

D|--------------------------------------|
A|-------------------------2-2--4-4-----|
E|5-5--2-2------------5-5------------4-4|
B|----------0-0--2-2--------------------| x4


Verse 2:

D|-------------------------------------|
A|-------------------------------------|
E|5-5----------------------5-5---------|
B|-----0-0--2--0-0-2-4-2--------0-0--2\|

D|-----------------------------------------------|
A|-----------------------------------------------|
E|5-5----------------------5-5-------------------|
B|-----0-0--2--0-0-2-4-2--------0-0--2--0-0-2-4-2|

D|-------------------------------------|
A|-------------------------------------|
E|5-5----------------------5-5---------|
B|-----0-0--2--0-0-2-4-2--------0-0--2\|

D|-----------------------------------------------|
A|-----------------------------------------------|
E|5-5----------------------5-5-------------------|
B|-----0-0--2--0-0-2-4-2--------0-0--2--0-0-2-4-2|


Pre Chorus:

D|-----------------------------------------------------------------------------------------------|
A|--------------------------------4-4-4-4-4-4-4-4-2-2-2-2-2-2-2-2--------------------------------|
E|5-5-5-5-5-5-5-5-5-5-5-5-5-5-5-5---------------------------------2-2-2-2-2-2-2-2-2-2-2-2-4-4-4-4|
B|-----------------------------------------------------------------------------------------------|


Chorus:

D|--------------------------------------|
A|-------------------------2-2--4-4-----|
E|5-5--2-2------------5-5------------4-4|
B|----------0-0--2-2--------------------| x4

D|------------------------------------------------------------|
A|------------------------------------------------------------|
E|5---5-5-5---5-5-5---5-5-5--5-5-7---7-7-7---7-7-7---7-7-7-7-7|
B|------------------------------------------------------------|


Bridge:
No bass but if you want play this and let them ring

D|----------------------------------------------------------------|
A|----------------------------------------------------------------|
E|9---------------7---------------5---------------5---------------|
B|----------------------------------------------------------------| x3

D|------------------------------------------------------------------------------------------------|
A|------------------------------------------------------------------------------------------------|
E|9---------------7---------------5---------------7---------------5---------------7---------------|
B|------------------------------------------------------------------------------------------------|

{Verse thing}

D|-------------------------------------|
A|-------------------------------------|
E|5-5----------------------5-5---------|
B|-----0-0--2--0-0-2-4-2--------0-0--2\|

D|-----------------------------------------------|
A|-----------------------------------------------|
E|5-5----------------------5-5-------------------|
B|-----0-0--2--0-0-2-4-2--------0-0--2--0-0-2-4-2|


Pre chorus (a little different this time):

D|---------------------------------------------------------------------------|
A|---------------------------------------------------------------------------|
E|5-5-5-5-5-5-5-5-5-5-5-5-5-5-5-5-5-5-5-5-5-5-5-5-2-2-2-2-2-2-2-2-2-2-2-2-4-4-4-4-4-4-4-4-4-4-4-4|
B|---------------------------------------------------------------------------|

D|---------------------------------------------------------------|
A|-----7----9--------------------------7----9--------------------|
E|5--5----5------5/-7-7-7-7-------5--5----5-----5/7-7-7-7-7------|
B|---------------------------------------------------------------|

D|---------------------------------------------------------------|
A|---------------------------------------------------------------|
E|--------------------------------0-0-0-0-0-0-0-0-2-2-2-2-2-2-2-2|
B|2-2-2-2-2-2-2-2-2-2-2-2-2-2-2-2--------------------------------|

Final Chorus:

D|--------------------------------------|
A|-------------------------2-2--4-4-----|
E|5-5--2-2------------5-5------------4-4|
B|----------0-0--2-2--------------------| x2

end on and let ring
D|--------------|
A|--------------|
E|5-------------|
B|--------------|

************************************
| /  Slide up
| \  Slide down
************************************

Almost there ...

Sign in to get your own page with links to favourite songs and more. You are just one click away...

Login with Facebook Login with Google