Log in

One click and you are in

Login with Facebook Login with Google

Why sign up and log in

Guitar Tabs Explorer
I The Mighty bass tabs for Dancing on a tightrope

Dancing On A Tightrope bass tab by I The Mighty

I The Mighty bass tabs for Dancing on a tightrope

Bass tabs

Intro:

G|-----------------------------------------------------------------|
D|-----------------------------------------------------------------|
A|----------------------------------5-5-5-5-5-5-5-5---5-5---5-5-5-5|
E|1-1-1-1-1-1-1---1-1---1-1-1-1------------------------------------|

G|----------------------------------------------------|
D|----------------------------------------------------|
A|----------------------3-3------------------------3-3|
E|5-5-5-3-5/-----3-5-----------5-5-5-3-5/-----3-5-----|

G|------------------------------------------------------------------|
D|------------------------------------------------------------------|
A|----------------------------------5-5-5-5-5-5-5-5---5-5---5-5-5-5-|
E|1-1-1-1-1-1-1---1-1---1-1-1-1-------------------------------------|

Verse 1:

G|--------------------------------------------------------------------|
D|--------------------------------------------------------2-2-2-3-/---|
A|--------------------------------5---5-5-5---5---5---5---------------|
E|5---5-5-5---5---5---5---5-5-5-5-------------------------------------|

G|----------------------------------------------------------|
D|----------------------------------------------------------|
A|--------------------------------3---3-3-3-2---2---2-2-3---|
E|1-1-1-1---1---1---1---1-1-1-1----------------------------3|

{Pre chorus]

G|-------------------------------------------------------------------------------------------------------|
D|-------------------------------------------------------------------------------------------------------|
A|------------------------------------0---0---0-0-0-0---3---3-3------------------------------------------|
E|1---1---1-1-1-1---0---0---0-0-0-0-----------------------------3---3-3---1---1---1-1-1-1---0-0-0-0-0-0-0|


Chorus:x2

G|-----------------------------------------------------|
D|-----------------------------------------------------|
A|----------------------3-3-------------------------3-3|
E|5-5-5-3-5/------3-5-----------5-5-5-3-5/------3-5----|

G|-----------------------------------------------------------------|
D|-----------------------------------------------------------------|
A|----------------------------------5-5-5-5-5-5-5-5---5-5---5-5-5-5|
E|1-1-1-1-1-1-1---1-1---1-1-1-1------------------------------------|

{Break]

Little fill (1:21)
G|-----------|
D|-----------|
A|------3----|
E|5-3-5---3-5|


Verse 2:

G|--------------------------------------------------------------------|
D|--------------------------------------------------------2-2-2-3-/---|
A|--------------------------------5---5-5-5---5---5---5---------------|
E|5---5-5-5---5---5---5---5-5-5-5-------------------------------------|

G|----------------------------------------------------------|
D|----------------------------------------------------------|
A|--------------------------------3---3-3-3-2---2---2-2-3---|
E|1-1-1-1---1---1---1---1-1-1-1----------------------------3|

{Pre chorus]

G|-------------------------------------------------------------------------------------------------------|
D|-------------------------------------------------------------------------------------------------------|
A|------------------------------------0---0---0-0-0-0---3---3-3------------------------------------------|
E|1---1---1-1-1-1---0---0---0-0-0-0-----------------------------3---3-3---1---1---1-1-1-1---0-0-0-0-0-0-0|


Chorus:x2

G|-----------------------------------------------------|
D|-----------------------------------------------------|
A|----------------------3-3-------------------------3-3|
E|5-5-5-3-5/------3-5-----------5-5-5-3-5/------3-5----|

G|-----------------------------------------------------------------|
D|-----------------------------------------------------------------|
A|----------------------------------5-5-5-5-5-5-5-5---5-5---5-5-5-5|
E|1-1-1-1-1-1-1---1-1---1-1-1-1------------------------------------|

End of chorus 2 into bridge

G|---------------------------------------------------------------------------------|
D|3-3-3-3-3-3-3---3---3---3-3-3-3-3-3-----5-5-5-5-5-5-5---5---5---5-5-5-5-5--------|
A|---------------------------------------------------------------------------------|
E|----------------------------------------------------------------------------5-/--|

G|-----------------|
D|-----------------|
A|--------5-3------|
E|0-0-3-3-----5-3-5|


Bridge:

G|--------------------------------------------------------------------|
D|--------------------------------------------------------------------|
A|----------------8-8-8-8-8-8-8-7-6-6-6-6-6-6-6-6-------------3-----5\|
E|5-5-5-5-5-5-5-5---------------------------------0-----3-------------|

G|--------------------------------------------------------------|
D|---------------------------------------------------------------|
A|----------------8-8-8-8-8-8-8-7-6-6-6-6-6-6-6-6---------5-3----|
E|5-5-5-5-5-5-5-5---------------------------------0-0-3-3-----5-3|

G|------------------------------------------------------------------------|
D|------------------------------------------------------------------------|
A|----------------8-8-8-8-8-8-8-7-6-6-6-6-6-6-6-6-------------3-----5-----|
E|5-5-5-5-5-5-5-5---------------------------------0-----3---------------5\|


Chorus:

G|-----------------------------------------------------------------|
D|-----------------------------------------------------------------|
A|----------------------------------5-5-5-5-5-5-5-5---5-5---5-5-5-5|
E|1-1-1-1-1-1-1---1-1---1-1-1-1------------------------------------|

G|-----------------------------------------------------|
D|-----------------------------------------------------|
A|----------------------3-3-------------------------3-3|
E|5-5-5-3-5/------3-5-----------5-5-5-3-5/------3-5----|

G|-----------------------------------------------------------------|
D|-----------------------------------------------------------------|
A|----------------------------------5-5-5-5-5-5-5-5---5-5---5-5-5-5|
E|1-1-1-1-1-1-1---1-1---1-1-1-1------------------------------------|


Outro pt 1: x2

G|--------------------------------------------------------|
D|--------------------------------------------------------|
A|0---0---0-0-2---2---2-2-3---3---3-3---5---5-5---7---7-7\|
E|--------------------------------------------------------|

G|-----------------------------------------------------|
D|-----------------------------------------------------|
A|------------5---5---5-5-5---------------5---5---5-5-5|
E|1---1---1-------------------1---1---1----------------|


Outro pt 2:

G|------------------------------------------------------------------|
D|------------------------------------------------------------------|
A|----------------------------------5-5-5-5-5-5-5-5-5-5-5-5-5-5-5-5-|
E|1-1-1-1-1-1-1-1-1-1-1-1-1-1-1-1-1---------------------------------|

G|---------------------------------------------------------------------|
D|3-3-3-3-3-3-3-3-3-3-3-3-3-3-3-3-5-5-5-5-5-5-5-5---5---5---5---5-5---5|
A|---------------------------------------------------------------------|
E|---------------------------------------------------------------------|

Almost there ...

Sign in to get your own page with links to favourite songs and more. You are just one click away...

Login with Facebook Login with Google