Log in

One click and you are in

Login with Facebook Login with Google

Why sign up and log in

Guitar Tabs Explorer
I The Mighty bass tabs for Cutting room floor

Bass tabs

Tuning: B Tuning (B E A D)


Verse 1:

D|----------------------------------------------------------------|
A|----------------------------------------------------------------|
E|--------------------------------7-------------------------------|
B|4-----------------------7---------------------------------------| x3

D|----------------------------------------------------------------|
A|----------------------------------------------------------------|
E|8-------------------------------7-7-7-7-7-7-7-7-7-7-7-7-7-------|
B|----------------------------------------------------------------|

Chorus:

D|----------------------------------------------------------------|
A|6-6-6-6-6-6-6-6-6-6-6-6-9-9-9-9-2-2-2-2-2-2-2-2-2-2-2-2-2-2-2-2-|
E|----------------------------------------------------------------|
B|----------------------------------------------------------------|

D|--------------6---4-------4-------------------9-9-8-8-6-6-------|
A|3-3-3-3-3-3-3---------6-------6-5-5-5-5-5-5-5-------------9-9-9-|
E|----------------------------------------------------------------|
B|----------------------------------------------------------------|

D|----------------------------------------------------------------|
A|6-6-6-6-6-6-6-6-6-6-6-6-9-9-9-9-2-2-2-2-2-2-2-2-2-2-2-2-2-2-2-2-|
E|----------------------------------------------------------------|
B|----------------------------------------------------------------|

D|----------------------------------------------------------------|
A|3-3-3-3-3-3-3-3-3-3-3-3-3-3-3-3-5-5-5-5-5-5-5-5-5-5-5-5-5-5-5-5-|
E|----------------------------------------------------------------|
B|----------------------------------------------------------------|

rest

Verse 2:

D|----------------------------------------------------------------|
A|6---6---6-6-6-6---6-6-------------------------------------------|
E|--------------------------------7---7---7-7-7-7---7-7---7-7-7-7-|
B|------------------------7---7-----------------------------------|

D|----------------------------------------------------------------|
A|----------------------------------------------------------------|
E|8-------------------------------7-7-7-7-7-7-7-7-7-7-7-7-7-7-7---|
B|----------------------------------------------------------------|

D|----------------------------------------------------------4-----|
A|6-6---------6-6---------6h9-----5-5---------5-5---------5-------|
E|----------------------------------------------------------------|
B|----------------------------------------------------------------|

D|----------------------------------------------------------------|
A|4-4---------4-4---------4-4-------------------------------------|
E|--------------------------------7-7-7---7-7-7-7-----------------|
B|--------------------------------------9---------9-9-9-9-7-7-7-7-|

D|----------------------------------------------------------4-----|
A|6-6---------6-6---------6h9-----5-5---------5-5---------5-------|
E|----------------------------------------------------------------|
B|----------------------------------------------------------------|

D|----------------------------------------------------------------|
A|4-4-4-4-4-4-4-4-4-4-4-4-4-4-4-4---------------------------------|
E|--------------------------------7-7-7-7-7-7-7-7-----------------|
B|------------------------------------------------9-9-9-9-7-7-7-7-|


Chorus:

D|----------------------------------------------------------------|
A|6-6-6-6-6-6-6-6-6-6-6-6-9-9-9-9-2-2-2-2-2-2-2-2-2-2-2-2-2-2-2-2-|
E|----------------------------------------------------------------|
B|----------------------------------------------------------------|

D|--------------6---4-------4-------------------9-9-8-8-6-6-------|
A|3-3-3-3-3-3-3---------6-------6-5-5-5-5-5-5-5-------------9-9-9-|
E|----------------------------------------------------------------|
B|----------------------------------------------------------------|

D|----------------------------------------------9---8-----6-------|
A|6-6-6-6-6-6-6-6-6-6-6-6-9-9-9-9-2-2-2-2-2-2-2---------9---9-----|
E|----------------------------------------------------------------|
B|----------------------------------------------------------------|

D|----------------------------------------------------------------|
A|3-3-3-3-3-3-3-3-3-3-3-3-3-3-3-3-5-5-5-5-5-5-5-5-5-5-5-5-5-5-5-5-|
E|----------------------------------------------------------------|
B|----------------------------------------------------------------|


Bridge:

D|--------------------------------------------------------|
A|6-------6-----6-----6---9---6-------6-----6-----6---9---|
E|----6-------6-----6-------------6-------6-----6---------|
B|--------------------------------------------------------|

D|----------------------------------------------------------------|
A|6-------6-----6-----6---9---------------------9---8-8-6-8-6-----|
E|----6-------6-----6---------7---6-6-4-6---4---------------------|
B|----------------------------------------------------------------|

D|--------------------------------------------------------|
A|6-------6-----6-----6---9---6-------6-----6-----6---9---|
E|----6-------6-----6-------------6-------6-----6---------|
B|--------------------------------------------------------|

D|----------------------------------------------------------------|
A|6-------6-----6-----6---9---------------------------------------|
E|----6-------6-----6---------7---6-6-4-6---4---7---6-6-4-6---4---|
B|----------------------------------------------------------------|

D|--------------------------------------------------------------------------------------------|
A|6--------------------------9---6----------------------------9---6-----------------------9---|
E|--------------------------------------------------------------------------------------------|
B|--------------------------------------------------------------------------------------------|

D|----------------------------------------------------------------|
A|----------------------------------------------------------------|
E|7---------------7---------------7---------------7---------------|
B|----------------------------------------------------------------|

D|----------------------------------------------------------------|
A|----------------------------------------------------------------|
E|7-------------------------------7-------------------------------|
B|0-------------------------------0-8-----------------------------|

D|----------------------------------------------------------------|
A|----------------------------------------------------------------|
E|7-7-7-7-7-7-7-7-7-7-7-7-7-7-7-7-7-7-7-7-7-7-7-7-7-7-7-7-7-7-7-7-|
B|----------------------------------------------------------------|


Chorus:

D|----------------------------------------------------------------|
A|6\----------------------9\------2-2-2-2-2-2-2-2-2-2-2-2-2-2-2-2-|
E|----------------------------------------------------------------|
B|----------------------------------------------------------------|

D|--------------6---4-------4-------------------9-9-8-8-6-6-------|
A|3-3-3-3-3-3-3---------6-------6-5-5-5-5-5-5-5-------------9-9-9-|
E|----------------------------------------------------------------|
B|----------------------------------------------------------------|

D|----------------------------------------------9---8-----6-------|
A|6-6-6-6-6-6-6-6-6-6-6-6-9-9-9-9-2-2-2-2-2-2-2---------9---9-----|
E|----------------------------------------------------------------|
B|----------------------------------------------------------------|

D|----------------------------------------------------------------|
A|3-3-3-3-6-6-6-6-3-3-3-3-6-6-6-6-5-5-5-5-5-5-5-5-5-5-5-5-8-8-9-9-|
E|----------------------------------------------------------------|
B|----------------------------------------------------------------|


Outro:

D|----------------------------------------------------------------------|
A|-----------------------------------------------------------4---6--6---|
E|----------------------------------------------------------------------|
B|4-4-4-4-4-4-4-4-4-4-4-4-4-4-----4-4-4-4-4-4-4-4-4---7--7--------------| x2

D|--------------------------------------------------------------------|
A|-----------------------------------------------------------4---6--7\|
E|--------------------------------------------------------------------|
B|4-4-4-4-4-4-4-4-4-4-4-4-4-4-----4-4-4-4-4-4-4-4-4---7--7------------|


************************************

| h  Hammer-on
| p  Pull-off
| /  Slide up
| \  Slide down
| ~  Vibrato

************************************

Almost there ...

Sign in to get your own page with links to favourite songs and more. You are just one click away...

Login with Facebook Login with Google