Log in

One click and you are in

Login with Facebook Login with Google

Why sign up and log in

Guitar Tabs Explorer
I Mother Earth bass tabs for Songburst delirium

Songburst Delirium bass tab by I Mother Earth

I Mother Earth bass tabs for Songburst delirium

Bass tabs

Main Riff:
G|----------------|----------|---------------------------------------|
D|--Guitar Intro--|----------|----3-3-2-3-3----------------3-3-2-3-3-|
A|----------------|----------|--5-----------5-3-2-2-3-3--5-----------|
D|----------------|--0-------|---------------------------------------|

G|-------------------------------------------------------|
D|-/7-5-5-3-5--------------------------------------------|
A|-------------5-3-3-2-3-3-5-------------0-2-3-2-3-2-3-3-|
D|---------------------------0-0-2-3-4-5-----------------|
  X2
G|---------------------|----------------------------------------------|
D|---------------------|---------------------------------------------o|
A|-/5-3-3-2-2-3-2------|-------4---------4-5-5-------4---------4-5-5-o|
D|----------------5-3--|-0-3-3---0-0-3-3-------0-3-3---0-0-3-3--------|
 6X
G|--------|-------------------------------------------|
D|--------|------------------------------------------o|
A|--------|---3----------------3-------5-------------o|
D|-0-0--0-|-0---5-3--0-0--0--0---5-3-0---0-0----------|

G|------------------------------------------------------------------|
D|------------------------------------------------------------------|
A|---3----------------3-------5-------------3-----------------------|
D|-0---5-3--0-0--0--0---5-3-0---0-0--0--3h5---5--/7--7-7-5--7--5--0-|

G|-------------------------------------------------------|
D|-------------------------------------------------------|
A|---------3------5-7-8----------------3-----------------|
D|-0-0-3h5---5--7-------7-5-0--0-0-3h5---5--/7--7-7-5--7-|

G|---------------------------------|----------|
D|---------------------------------|----------|
A|--------------3------5-7-8-------|---Rest---|
D|-5-0--0-0-3h5---5--7-------7-5-0-|----------|

G|-------------------------------------------------|
D|---3-3-2-3-3----------------3-3-2-3-3-/7-5-5-3-5-|
A|-5-----------5-3-2-2-3-3--5----------------------|
D|-------------------------------------------------|

G|----------------------------|
D|----------------------------|
A|-5-3-3-2-3-3-5--------------|
D|---------------0-0-2-3-4-5--|

G|-----------------------------------------|
D|------------------------5/7-5------------|
A|-0-2-3-2-3-2-3-3-/5--7--------7-5--------|
D|----------------------------------7-5-0--|
  X2
G|---------------------------------------------|
D|--------------------------------------------o|
A|-------4--------4-5-5-------4---------4-5-5-o|
D|-0-3-3--0-0-3-3-------0-3-3---0-0-3-3--------|
                      X6
G|--------|-----------------------------------|
D|--------|----------------------------------o|
A|--------|---3----------------3-------5-----o|
D|-0-0--0-|-0---5-3--0-0--0--0---5-3-0---0-0--|

G|--------------------------------------------|
D|--------------------------------------------|
A|---3-------------3-------5-------------3----|
D|-0---5-3--0-0--0---5-3-0---0-0--0--3h5---5--|

G|------------------------------------------------|
D|------------------------------------------------|
A|-----------------------------3------5-7-8-------|
D|-/7--7-7-5--7--5--0--0-0-3h5---5--7-------7-5-0-|

G|-----------------------------------------------------------|
D|-----------------------------------------------------------|
A|---------3------------------------------3------5-7-8-------|
D|-0-0-3h5---5--/7--7-7-5--7-5-0--0-0-3h5---5--7-------7-5-0-|

G|----------|----------------------------------|
D|----------|---3-3-2-3-3----------------3-3-2-|
A|---Rest---|-5-----------5-3-2-2-3-3--5-------|
D|----------|----------------------------------|

G|------------------------------------------|
D|-3-3-/7-5-5-3-5---------------------------|
A|----------------5-3-3-2-3-3-5-------------|
D|------------------------------0-0-2-3-4-5-|

G|------------------------------------|
D|------------------7---5---4---------|
A|-0-2-3-2-3-2-3-/7---5---4---3-2-----|
D|--------------------------------5-3-|
   X2
G|----------------------------------------------|------------|
D|---------------------------------------------o|------------|
A|-------4---------4-5-5-------4---------4-5-5-o|-Short Rest-|
D|-0-3-3---0-0-3-3-------0-3-3---0-0-3-3--------|------------|

G|-----------------------------------------------|
D|-----------------------------------------------|
A|-5---4-3---4-5---4-3---4-5---4-3---4-5---4-3---|
D|-5---4-3---4-5---4-3---4-5---4-3---4-5---4-3---|

G|-----5---7--5--------------7--5------5------------|
D|-5/7---7-------7-7--5---3--------7-7---7-5-3-5-7--|
A|--------------------------------------------------|
D|--------------------------------------------------|

G|-5/7--5-------------5/7--5------5------------------------------|
D|---------7-7--5--3----------7-7---7-5-3-3/5-3------------------|
A|-----------------------------------------------5--3------------|
D|-----------------------------------------------------7-7--5--3-|

G|----------------------------------------------|
D|----------------------------------------------|
A|--3/5--3--------------------3/5--3------------|
D|----------7-7--5-7-5-3-5-7----------7-7--5--3-|

G|--------------------------|
D|--------------------------|
A|-3/5--3-------------------|
D|---------7-7--5-7-5-3-5-7-|

G|------------------------------------------------|
D|-----------------------------3------------------|
A|-3/5-5--3------------3---3h5---5--3/5-5--3------|
D|----------5-3-0--3h5---5-------------------5-3--|

G|------------------------------------------------------|
D|----------------3--------------------------------3----|
A|--------3---3h5---5--3/5-5--3------------3---3h5---5--|
D|-0--3h5---5-------------------5-3-0--3h5---5----------|

G|----------------------------------|-------------------------5-------|
D|----------------------------------|---------3-----------5/7---7-5-7-|
A|-3h5-5-5-3h5-5-5-3h5-5-5-3h5-5-5--|-------3---5--3-5-3--------------|
D|----------------------------------|-0-3h5---------------------------|

G|-------------------------------------5-------------------|
D|-5--7-5--------------3-----------5/7---7-5-7--5--7-5-----|
A|--------7-5--------3---5--3-5-3----------------------7-5-|
D|-------------0-3h5---------------------------------------|

G|-------------------------5--------------------------------------|
D|---------3-----------5/7---7-5-7--5--7-5--------------3---------|
A|-------3---5--3-5-3----------------------7-5--------3---5--3-5-3|
D|-0-3h5----------------------------------------0-3h5-------------|

G|-----7-5---5------------------|
D|-5/7-----7---7-5-7-5-7-5------|
A|-------------------------7-5--|
D|------------------------------|

G|-----------------------------------------------|
D|-----------------------------------------------|
A|-----------------------------------------3---0-|
D|-0--0-0-3/5-5-7--5-5--3-0--0-0-3/5-5-7-7---5---|
     . . . .
G|---------------------------------------------------|
D|---------------------------------------------------|
A|---------------------------------------------------|
D|-0--0-0-3/5-5-7--5-5--3-0--0-0-3/5-5-7-9--9--9-9-9-|

G|-12-10--------12/14-12--------------------------9--------|
D|-------12--10----------10--10-10--9/10-9------9---9------|
A|-----------------------------------------10-7-------7--7-|
D|---------------------------------------------------------|

G|----------------10------------------------10----------|
D|-9/10-9------10----10-------9/10-9------10---10-------|
A|--------10-8----------8--8---------10-8---------8-----|
D|--------------------------------------------------3---|

G|-------------------------------------------------------9-----|
D|-----------10--------10--------10--------9/10-9------9---9---|
A|---------------10-10-----10-10-----10-10--------10-7-------7-|
D|-8h10-10-8---------------------------------------------------|

G|------9----------10---------10------------------------------|
D|--------9-----10----10---10----10---------------------------|
A|-7-7------7-8----------8----------8--8--8-8-8--8--8-8-8--8--|
D|------------------------------------------------------------|

G|-----------------------------------------------------------|
D|-----------------------------------------------------------|
A|--8-8-8--8--6----------------------------------------------|
D|--------------10--10-10-10--10--10-10-10--10--10-10-10--10-|

G|--------------------------------------------------------------|
D|--------------------------------------------------------------|
A|-5--7--7-7-7--7--7-7-7--7--7-7-7--7--7--8--8-8-8--8--8-8-8--8-|
D|--------------------------------------------------------------|

G|-----------------------------------------------------|------------|
D|-----------------------------------------------------|------------|
A|-8-8-8--8--8-8-8--8--8-8-8--8--8-8-8--8--8-8-8-8-7-5-|-Short Rest-|
D|-----------------------------------------------------|------------|
       X4    X4
G|----------------------|--------------------------|
D|---------------------o|-------------------------o|
A|-------4---------4-5-o|---5-5---5---4---5-5---4-o|
D|-0-3-3---0-0-3-3------|-0-----0---0---0-----0----|


************************************

| / Slide up
| h Hammer-on

ⓘ Bass guitar tab for 'Songburst Delirium' by I Mother Earth, an alternative rock band formed in 1991 from Toronto, Ontario, Canada

Almost there ...

Sign in to get your own page with links to favourite songs and more. You are just one click away...

Login with Facebook Login with Google