Log in

One click and you are in

Login with Facebook Login with Google

Why sign up and log in

Guitar Tabs Explorer
I Mother Earth tabs for Choke

Guitar tabs with lyrics

ok. Ive finally tabbed the whole song.

The intro is playing harmonics on the 3rd fret. The way its played is by putting your
on the third fret before the bar. Then when the note changes, keep your finger in the 3rd
but move in towards the tuning head about 2 centimetres, but keep your finger within the
fret and it will change the note.

I will put a 2* just to show where the note changes but it is really still a 3rd fret harmonic!

Drop D!
Intro/Verse

e|---------------------------------------------------------|
b|---------------------------------------------------------|
g|---------------------------------------------------------|
d|---------------------------------------------------------|
a|---------------------------------------------------------|
A chord diagramD MajorD|---0~-3*3*---0~-3*3*---0~-3*3*---3*-3*-3*-3*-2*-3*-3*-3*-|


Chorus

e|--------------------------------------------------------------------|
b|------66-----66-----66--6-8-10--------------------------------------|
g|------55-----55-----55--5-7-9------1010-----1010-----7-7------7-7---|
d|---0--33--0--33--0--33--3-5-7---8--------8--------5--------5--------|
a|---0------0------0--------------8--8-8---8--8-8---5--5-5---5--5-5---|
A chord diagramD MajorD|---0------0------0--------------8--------8--------5--------5--------|

Lead:
(This is that snyth type thing that plays here, throughout the 2nd verse
and in the bridge)

e|-------------------------------------------|
b|-------------------------------------------|
g|---14-14-14--14-14-7---14-14-14--14-14-17--|
d|-------------------------------------------|
a|---12-12-12--12-12-5---12-12-12--12-12-15--|
A chord diagramD MajorD|-------------------------------------------|

e|-------------------------------------------|
b|-------------------------------------------|
g|---14-14-14--14-14-7---17-17-17-17-14-14-7-|
d|-------------------------------------------|
a|---12-12-12--12-12-5---15-15-15-15-12-12-5-|
A chord diagramD MajorD|-------------------------------------------|

Bridge 1

e|------------------------------------------------|
b|-------------------------------------------3~~--|
g|-------------------------------------------2~~--|
d|---7-xx-7-xx-7-xx-7-xx-78\-78\--x10-----0--0~~--|
a|---7-xx-7-xx-7-xx-7-xx-78\-78\--x10-----0-------|
A chord diagramD MajorD|---7-xx-7-xx-7-xx-7-xx-78\-78\--x10-----0-------|

e|----------------------------------------------------------------------|
b|----------------------------------------------------------------------|
g|----------------------------------------------------------------------|
d|---77777777-777777777-88888888-88888888-8/10-10-10-10-10-10~~---0~~~--|
a|---77777777-777777777-88888888-88888888-8/10-10-10-10-10-10~~---0~~~--|
A chord diagramD MajorD|---77777777-777777777-88888888-88888888-8/10-10-10-10-10-10~~---0~~~--|

End on:
(after final chorus)

e|--------|
b|--------|
g|--------|
d|---5\---|
a|---5\---|
ⓘ Guitar tab for 'Choke' by I Mother Earth, an alternative rock band formed in 1991 from Toronto, Ontario, Canada

Almost there ...

Sign in to get your own page with links to favourite songs and more. You are just one click away...

Login with Facebook Login with Google