Search tabs and chords

Browse bands and artists

A B C D E F G H I J K L M N O P Q R S T U V W X Y Z #

Log in

[ Register here | Forgot password ]

Guitar Tabs Explorer
Print

Heaven chords by I Monster Tabs

Guitar chords with lyrics

"I Monster" "Heaven"

     A   C#m
e:---5----4--|
B:---5----5--|
G:---6----6--|
D:---7----6--|
A:---7----4--|
E:---5-------|

   A                       C#m
e:------------------------:------------------------:
B:------------------------:-------5-----------5----:
G:-------6-----------6----:-------6-----------6----:
D:-------7-----------7----:-------6-----------6----:
A:-------7-----------7----:-4---------4-4---------4:
E:-5---------5-5---------5:------------------------:

A           C#m
I look at you
A           C#m
And before my eyes it's true
A           C#m
The girl of my dreams
A           C#m
Is not quite what she seems

A           C#m
Open your door
A           C#m
Turn on the light
A           C#m
Show me some more
A           C#m
Tell me it's alright

A           C#m
Heaven is inside you
A           C#m
Heaven when I ride you
A           C#m
Heaven do you want me
A           C#m
Is hell just in my mind?

A           C#m
I look at you
A           C#m
At everything you do
A           C#m
The words in your head
A           C#m
Still remain unsaid

A           C#m
Open my eyes
A           C#m
Inflatable girl
A           C#m
Lose the disguise
A           C#m
Release me from your spell

A           C#m
Heaven is inside you
A           C#m
Heaven when I ride you
A           C#m
Heaven do you want me
A           C#m

Comments