Log in

One click and you are in

Login with Facebook Login with Google

Why sign up and log in

Guitar Tabs Explorer
I Killed The Prom Queen tabs for Never never land

Never Never Land tab by I Killed The Prom Queen

I Killed The Prom Queen tabs for Never never land

Guitar tabs

only one on here so yeah. theres a few riffs i missed, ill get onto that later :) - Alex.

0:00-0:06 Losers always whine about there best, winners go home and f*** the prom queen.

0:06-0:25
D--------|
A--------|
F--------|
C--0--8--| Repeat this 4 times.
G--0--8--|
C--0--8--|

0:25-0:58
D---------------------------------------------------------------|
A---------------------------------------------------------------|
F---------------------------------------------------------------|
C---------------------------------------------------------------|
G------8--7--5--10--8--7-8-7-5----------------------------------|
C--0-0--0--0--0---0--0--0---------------------------------------|

after every 3 times of playing the above riff play this riff below once, (Tremelo picked).

D---------------------------------------------------------------|
A---------------------------------------------------------------|
F---------------------------------------------------------------|
C-----------------8888-7777-5555-7777---------------------------|
G--8888-7777-5555-----------------------------------------------|
C---------------------------------------------------------------|


0:58-1:20
D-----
A-----
F-----
C--0--
G--0--
C--0--

1:20-1:46
D----------------------------------------------------------------|
A----------------------------------------------------------------|
F----------------------------------------------------------------|
C--0-0-0-0-0---0-0--0-0--0-0-0-0-0---0-0--0-00-------------------|
G--0-0-0-0-0---0-0--0-0--0-0-0-0-0---0-0--0-00-------------------|
C--0-0-0-0-0---0-0--0-0--0-0-0-0-0---0-0--0-00-------------------|

Back to that riff

1:46-2:08
D---------------------------------------------------------------|
A---------------------------------------------------------------|
F---------------------------------------------------------------|
C---------------------------------------------------------------|
G------8--7--5--10--8--7-8-7-5----------------------------------|
C--0-0--0--0--0---0--0--0---------------------------------------|

after every 3 times of playing the above riff play this riff below once, (Tremelo picked).

D---------------------------------------------------------------|
A---------------------------------------------------------------|
F---------------------------------------------------------------|
C-----------------8888-7777-5555-7777---------------------------|
G--8888-7777-5555-----------------------------------------------|
C---------------------------------------------------------------|


2:08-2:38
D---------------------------------------------------------------|
A---------------------------------------------------------------|
F---------------------------------------------------------------|
C--8-8-8-8--10-10-10-10--12-12-12-12--8-8-8-8--10-10-10-10------|
G--8-8-8-8--10-10-10-10--12-12-12-12--8-8-8-8--10-10-10-10------|
C--8-8-8-8--10-10-10-10--12-12-12-12--8-8-8-8--10-10-10-10------|


2:38-3:08
D----------------------------------------------------------------|
A----------------------------------------------------------------|
F----------------------------------------------------------------|
C--0-0-0-0-0---0-0--0-0--0-0-0-0-0---0-0--0-00-------------------|
G--0-0-0-0-0---0-0--0-0--0-0-0-0-0---0-0--0-00-------------------|
ⓘ Guitar tab for 'Never Never Land' by I Killed The Prom Queen, a metalcore band formed in 2003 from Adelaide, South Australia

Almost there ...

Sign in to get your own page with links to favourite songs and more. You are just one click away...

Login with Facebook Login with Google