Log in

One click and you are in

Login with Facebook Login with Google

Why sign up and log in

Guitar Tabs Explorer
I Hate Myself Because bass tabs for Fck me

Bass tabs

Tuning: Standard (E A D G)

(Intro)

G|---------------------------------------------------------------------------|
D|-----10-10-------9--7-5-4--------------------------------------------------|
A|--7-7--------10-10---------------------------------------------------------| x3
E|---------------------------------------------------------------------------|

G|---------------------------------------------------------------------------|
D|-----10-10--9~~~~~~--------------------------------------------------------|
A|--7-7----------------------------------------------------------------------|
E|---------------------------------------------------------------------------|

G|---------------------------------------------------------------------------|
D|-----10-10-------9--7-5-4--------------------------------------------------|
A|--7-7--------10-10---------------------------------------------------------| x3
E|---------------------------------------------------------------------------|

G|---------------------------------------------------------------------------|
D|-----10-10---------9-------------------------------------------------------|
A|--7-7------10-10-----------------------------------------------------------|
E|---------------------------------------------------------------------------|

repeat until theres a whole different tab which is at 1:00

Almost there ...

Sign in to get your own page with links to favourite songs and more. You are just one click away...

Login with Facebook Login with Google