Log in

One click and you are in

Login with Facebook Login with Google

Why sign up and log in

Guitar Tabs Explorer
I Hate Kate tabs for Im in love with a sociopath

I'm In Love With A Sociopath tab - I Hate Kate

I Hate Kate tabs for Im in love with a sociopath

Guitar tabs

This is a fun way and seems fairly accurate so enjoy :)


intro:

----------------------------------------7------7------7-------7---|
----10------10------10-----10-------------------------------------| 3rd time
-------------------------------------0------0-------0-----0-------| on every
--7------7-------7------7-----------------------------------------| bar
------------------------------------------------------------------| play it
------------------------------------------------------------------| faster.

-------8------8-------8-----8----------10------10------10----10---|
------------------------------------------------------------------|
---5-------5------5------5--------9-------9-------9-------9-------|
------------------------------------------------------------------|
------------------------------------------------------------------|
------------------------------------------------------------------|

pre verse:

----------------------------------------------------------------------|
----------------------------------------------------------------------|
--14--------------------16---------------17---------------------------|x3
--x---(seven times)------x--(twice)-------x---(six times)-------------|
--12--------------------14---------------15---------------------------|
----------------------------------------------------------------------|

--------------------------------------------------------------|
--------------------------------------------------------------|
-----16--(six times)--17--16----------------------------------|
-----14---------------15--14----------------------------------|
--------------------------------------------------------------|
--------------------------------------------------------------|

bass for verse------

pre chorus:

-------------------------------------------------------------------|
-------------------------------------------------------------------|
--------------------5---------------7------------------------------|
---2--(nine times)--x-(nine times)--x-(nine times)-----------------|
----0----------------3---------------5-----------------------------|
---0---------------------------------------------------------------|
   .                .               .
------------------------------------------------------------------|
------------------------------------------------------------------|
--9--------------9------------------------------------------------|    x4
--x-(four times)-x------------------------------------------------|
---7--------------7-----------------------------------------------|
------------------------------------------------------------------|


Chorus:

---------------------------------------------------------------|
---------------------------------------------------------------|
-------------10-----------------------9------------------------|
----7-(x3)----x-(x3)---10-------------x-(x4)-------------------|
----x---------8---------x-(x3)--------7------------------------|
----5-------------------8--------------------------------------|

Post chorus:

------------------------------------| 2nd choruse and the last, instead
------------------------------------| hit the last note 16 times and
------10----------------------------| then repeat verse.
-------x-(16x)----9-----------------|
-------8----------x-(x1)------------|
------------------7-----------------|


solo:

---------------------------------- ------------------------------|
---5-5-5-5-6-6-7-7-7-----(x3)----- -12-12-12-12-13-13-12---------|
---------------------------------- ------------------------------|
---------------------------------- ------------------------------|
---------------------------------- ------------------------------|
---------------------------------- ------------------------------|

--------------------------------------------------------------------|
---------17-(bend)--------------------------------------------------|
---------19-(bend)-------17-----------------------(x3)--------------|
------------------------------19----17------------------------------|
--------------------------------------------------------------------|
--------------------------------------------------------------------|

------------------------------------------------------------------|
--------17-(bend)-------------------------------------------------|
--------19-(bend)------17-----------------------------------------|
----------------------------18--19--------------------------------|
------------------------------------------------------------------|
------------------------------------------------------------------|

------------------------------------------------------------------|
------------------------------------------------------------------|
-------7--7--7--7777----------9--9--9--9999-----------------------|
-------x--x--x--xxxx----------x--x--x--xxxx-----------------------|
-------5--5--5--5555----------5--5--5--5555-----------------------|
------------------------------------------------------------------|


Bridge:

------------------------------------------------------------------|
------------------------------------------------------------------|
-----9--7--5--4---------------------------------------------------|
-3---x--x--x--x---3---------10------------------------------------|
-3---7--5--3--2---3------5--8--9----------------------------------|
-1----------------1------3-----7----------------------------------|


intro x1
pre versex1

verse

prechorusx1

chorusx3
pre versex1

verse

prechorusx1

chorusx2
pre versex

solo

bridge

Almost there ...

Sign in to get your own page with links to favourite songs and more. You are just one click away...

Login with Facebook Login with Google