Log in

One click and you are in

Login with Facebook Login with Google

Why sign up and log in

Guitar Tabs Explorer
I Fight Dragons bass tabs for The geeks will inherit the earth

The Geeks Will Inherit The Earth bass tab by I Fight Dragons

I Fight Dragons bass tabs for The geeks will inherit the earth

Bass tabs

Tuning: Standard (E A D G)


Intro:
G|---------------------------------------------------------------|
D|----------------5-5-5-5-5-5-5-5-7-7-7-7-7-7-7-7-2-2-2-2-3-3-3-3|
A|3-3-3-3-3-3-3-3------------------------------------------------|
E|---------------------------------------------------------------|
G|---------------------------------------------------------------|
D|----------------5-5-5-5-5-5-5-5-5-0-0-0-0-0-0-0-7-7-7-7-5-5-5-5|
A|3-3-3-3-3-3-3-3------------------------------------------------|
E|---------------------------------------------------------------|


Verse:
G|---------------------------------------------------------------|
D|----------------5-5-5-5-5-5-5-5-7-7-7-7-7-7-7-7-2-2-2-2-3-3-3-3|
A|3-3-3-3-3-3-3-3------------------------------------------------|
E|---------------------------------------------------------------| x2


Pre-chorus:
G|------------------------------------------------------------------|
D|------------------------------------------------------------------|
A|------------------------------------------------------------------|
E|0-0-0-0-0-0-0-0-1-1-1-1-1-1-1-1-3-3-3-3-3-3-3-3-5-5-5-5-5-5-5-5---|

G|---------------------------------------|
D|---------------------------------------|
A|---------------------------------------|
E|0-0-0-0-0-0-0-0-13-13-13-13-13-13-13-13| 13, not 1 and 3

Chorus:
G|---------------------------------------------------------------|
D|----------------5-5-5-5-5-5-5-5-7-7-7-7-7-7-7-7-2-2-2-2-3-3-3-3|
A|3-3-3-3-3-3-3-3------------------------------------------------|
E|---------------------------------------------------------------|
                                 tempo change       back to normal
G|---------------------------------------------------------------|-------------------------|---------------|
D|----------------5-5-5-5-5-5-5-5-0-0-0-0-0-0-0-0-7-7-7-7-5-5-5-5|-------------------------|2-2-2-2-3-3-3-3|
A|3-3-3-3-3-3-3-3------------------------------------------------|3\1----------------------|---------------|
E|---------------------------------------------------------------|----3-3-3-3-5h-8-5p/1-1-1|---------------|

G|---------------------------------------------------------------|
D|----------------5-5-5-5-5-5-5-5-7-7-7-7-7-7-7-7-2-2-2-2-3-3-3-3|
A|3-3-3-3-3-3-3-3------------------------------------------------|
E|---------------------------------------------------------------|

G|-------------------------------------------------------------------|
D|----------------5-5-5-5-5-5-5-5-0-0-0-0-0-0-0-0-7-7-7-7-5-5-5-5----|
A|3-3-3-3-3-3-3-3-------------------------------------------------3\1|
E|-------------------------------------------------------------------|


Verse 2:
G|-------------------------------------------------------------------------------------------------|
D|--------------------------------5-5-5-5-5-5-5-5-5-5-5-5-5-5-5-5-7-7-7-7-7-7-7-7-7-7-7-7-7-7-7-7-7|
A|3-3-3-3-3-3-3-3-3-3-3-3-3-3-3-3------------------------------------------------------------------|
E|-------------------------------------------------------------------------------------------------|

G|-------------------------------| Like every verse,except 4x faster
D|2-2-2-2-2-2-2-2-3-3-3-3-3-3-3-3| repeat whole verse x2
A|-------------------------------|
E|-------------------------------|


Pre-chorus:
G|-------------------------------------------------------------------------------------------------------|
D|-------------------------------------------------------------------------------------------------------|
A|-------------------------------------------------------------------------------------------------------|
E|0-0-0-0-0-0-0-0-1-1-1-1-1-1-1-1-3-3-3-3-3-3-3-3-5-5-5-5-5-5-5-5-0-0-0-0-0-0-0-0-13-13-13-13-13-13-13-13|


Chorus:
G|---------------------------------------------------------------|
D|----------------5-5-5-5-5-5-5-5-7-7-7-7-7-7-7-7-2-2-2-2-3-3-3-3|
A|3-3-3-3-3-3-3-3------------------------------------------------|
E|---------------------------------------------------------------|

G|---------------------------------------------------------------|-------------------|R|-------------|
D|----------------5-5-5-5-5-5-5-5-0-0-0-0-0-0-0-0-7-7-7-7-5-5-5-5|-------------------|E|2-2-2-3-3-3-3|
A|3-3-3-3-3-3-3-3------------------------------------------------|3\1----------------|S|-------------|
E|---------------------------------------------------------------|----3-3-3-3-5h-8-5p|T|-------------|

G|---------------------------------------------------------------|
D|---------------------------------------------------------------|
A|----------------5-5-5-5-5-5-5-5-7-7-7-7-7-7-7-7-2-2-2-2-3-3-3-3|
E|3-3-3-3-3-3-3-3------------------------------------------------|

G|------------------------------------------------------------------|
D|----------------5-5-5-5-5-5-5-5-0-0-0-0-0-0-0-0-7-7-7-7-5-5-5-5---|
A|3-3-3-3-3-3-3-3-------------------------------------------------3~|
E|------------------------------------------------------------------|


Bridge:
G|-------------------------------------------------------------------|
D|-------------------------------------------------------------------|
A|3-3-3-3-3-3-3-3----------------------------------------------------|
E|----------------3-3-3-3-3-3-3-3-3-5-5-5-5-5-5-5-5-5-1-1-1-1-3-3-3-3|

G|----------------------------------------------4-4-4-4-7-7-7-7|
D|-------------------------------------------------------------|
A|--------------5-5-5-5-5-5-5-5-7-7-7-7-7-7-7-7----------------|
E|3-3-3-3-3-3-3------------------------------------------------|


Chorus with varitions:
G|-------------------------------------------------7-7-7-7-7-7-7-7----------------|
D|---------------------------------5-5-5-5-5-5-5-5-----------------7-7-7-7-5-5-5-5|
A|3----------------3-3-3-3-3-3-3-3------------------------------------------------|
E|---3-3-5~-1-3-3-3---------------------------------------------------------------|

G|5-5-5-5-5-5-5-5-4-4-4-4-4-4-4-4-2-2-2-2-2-2-2-2------------------|
D|------------------------------------------------2-3-5-2-3-5-x-x-x| dead note
A|-----------------------------------------------------------------|
E|-----------------------------------------------------------------|


Outro:
G|-------------------------------------------------------------------------------|
D|----------------5-5-5-5-5-5-5-5-7-7-7-7-7-7-7-7-2-2-2-2-2-2-2-2-3-3-3-3-3-3-3-3|
A|3-3-3-3-3-3-3-3----------------------------------------------------------------|
E|-------------------------------------------------------------------------------|

D|-------------------------------------------------|R|--|
D|-------------------------------------------------|E|--|
A|----------------5-5-5-5-5-5-5-5-7-7-7-7-7-7-7-7-2|S|3~|
E|3-3-3-3-3-3-3-3----------------------------------|T|--|


************************************

| \ Slide down
| h Hammer-on
| p Pull-off
| ~ Vibrato
| x Dead note

************************************
ⓘ Bass guitar tab for 'The Geeks Will Inherit The Earth' by I Fight Dragons, a rock band formed in 2008 from Chicago, USA

Almost there ...

Sign in to get your own page with links to favourite songs and more. You are just one click away...

Login with Facebook Login with Google