Log in

One click and you are in

Login with Facebook Login with Google

Why sign up and log in

Guitar Tabs Explorer
I Fight Dragons bass tabs for Chicago

Bass tabs

Tuning: Standard (E A D G)


Chorus: no bass
Verse 1:

G|-4-4-4-4-4-4-4-4-4-4-4-4-4-4-4-4-----------------------------------------------------------------|
D|--------------------------------4-4-4-4-4-4-4-4-4-4-4-4-4-4-4-4--6-6-6-6-6-6-6-6-6-6-6-6-6-6-6-6-|
A|-------------------------------------------------------------------------------------------------|
E|-------------------------------------------------------------------------------------------------|

G|---------------------------------|
D|---------------------------------|
A|-7-7-7-7-7-7-7-7-7-7-7-7-7-7-7-7-|
E|---------------------------------|

G|-4-4-4-4-4-4-4-4-4-4-4-4-4-4-4-4-----------------------------------------------------------------|
D|--------------------------------4-4-4-4-4-4-4-4-4-4-4-4-4-4-4-4--6-6-6-6-6-6-6-6-6-6-6-6-6-6-6-6-|
A|-------------------------------------------------------------------------------------------------|
E|-------------------------------------------------------------------------------------------------|

G|---------------------------------|
D|---------------------------------|
A|-7-7-7-7-7-7-7-7-7-7-7-7-7-7-7-7-|
E|---------------------------------|


Interlude:

G|-----------|
D|-----------|
A|-----------|
E|-4-4--0-0--|


Chorus:

G|----------------------------------------------------------------------------------------------------------|
D|-----------------------------1-1-----------------4-4-2-2-1-1----------------------------------------------|
A|-2-2-2-2-2-2-2-2-2-2-2-4-4-4---------------------------------2-2-4-4-4-4-4-4-4-4-4-4-4-4-4-4-4-4----------|
E|---------------------------------2-2-2-2-2-2-2-2-------------------------------------------------4-4--0-0-|

G|----------------------------------------------------------------------------------------------------------|
D|-----------------------------1-1-----------------4-4-2-2-1-1----------------------------------------------|
A|-2-2-2-2-2-2-2-2-2-2-2-4-4-4---------------------------------2-2-4-4-4-4-4-4-4-4-4-4-4-4-4-4-4-4----------|
E|---------------------------------2-2-2-2-2-2-2-2-------------------------------------------------4-4--0-0-|


Interlude:

G|---------------------------------4-4-4-4-4-4-4-4-4-4-4-4-4-4-4-4-|
D|-----------------------------------------------------------------|
A|-2-2-2-2-2-2-2-2-2-2-2-2-2-2-2-2---------------------------------|
E|-----------------------------------------------------------------|


Verse 2:

G|-------------------------------------------------------------------------------------------------|
D|-------------------------------------------------------------------------------------------------|
A|-2-2-2-2-2-2-2-2-2-2-2-2-2-2-2-2-----------------------------------------------------------------|
E|---------------------------------2-2-2-2-2-2-2-2-2-2-2-2-2-2-2-2-4-4-4-4-4-4-4-4-4-4-4-4-4-4-4-4-|

G|---------------------------------|
D|---------------------------------|
A|---------------------------------|
E|-0-0-0-0-0-0-0-0-0-0-0-0-0-0-0-0-|

G|-------------------------------------------------------------------------------------------------|
D|-------------------------------------------------------------------------------------------------|
A|-2-2-2-2-2-2-2-2-2-2-2-2-2-2-2-2-----------------------------------------------------------------|
E|---------------------------------2-2-2-2-2-2-2-2-2-2-2-2-2-2-2-2-4-4-4-4-4-4-4-4-4-4-4-4-4-4-4-4-|

G|---------------------------------|
D|---------------------------------|
A|---------------------------------|
E|-0-0-0-0-0-0-0-0-0-0-0-0-0-0-0-0-|


Interlude:

G|-----------|
D|-----------|
A|-----------|
E|-4-4--0-0--|


Chorus:

G|----------------------------------------------------------------------------------------------------------|
D|-----------------------------1-1-----------------4-4-2-2-1-1----------------------------------------------|
A|-2-2-2-2-2-2-2-2-2-2-2-4-4-4---------------------------------2-2-4-4-4-4-4-4-4-4-4-4-4-4-4-4-4-4----------|
E|---------------------------------2-2-2-2-2-2-2-2-------------------------------------------------4-4--0-0-|

G|----------------------------------------------------------------------------------------------------------|
D|-----------------------------1-1-----------------4-4-2-2-1-1----------------------------------------------|
A|-2-2-2-2-2-2-2-2-2-2-2-4-4-4---------------------------------2-2-4-4-4-4-4-4-4-4-4-4-4-4-4-4-4-4----------|
E|---------------------------------2-2-2-2-2-2-2-2-------------------------------------------------4-4--0-0-|


Bridge:

G|-------------------------------|
D|-----------------------4-------|
A|-4-----------------------4-1---|
E|-----0---4---4-6-4-2---------2-|


Chorus:
 End of acapella
G|---------------------|
D|---------------------|
A|---------------------|
E|-0-0-0-0-12-12-12-12-|

  All instruments in
G|-----------------------------------------------------------------------------------------------------------|
D|----------------------------1-1---------------4-4-2-2-1-1--------------------------------------------------|
A|2-2-2-2-2-2-2-2-2-2-2-4-4-4-------------------------------2-2-4-4-4-4-4-4-4-4-4-4-4-4-4-4-4-4--------------|
E|-------------------------------2-2-2-2-2-2-2-2------------------------------------------------4-4-4-4-0-0-0|

G|----------------------------------------------------------------------------------------------------------|
D|-----------------------------1-1-----------------4-4-2-2-1-1----------------------------------------------|
A|-2-2-2-2-2-2-2-2-2-2-2-4-4-4---------------------------------2-2-4-4-4-4-4-4-4-4-4-4-4-4-4-4-4-4----------|
E|---------------------------------2-2-2-2-2-2-2-2-------------------------------------------------4-4--0-0-|


Outro:

G|------------------------------|
D|------------------------------|
A|-2-----4--------2-----4-------|
E|----2-----4--0-----2-----4--0-|

Almost there ...

Sign in to get your own page with links to favourite songs and more. You are just one click away...

Login with Facebook Login with Google