Log in

One click and you are in

Login with Facebook Login with Google

Why sign up and log in

Guitar Tabs Explorer
I Cant Believe Its Not Rock chords for Rain

Guitar chords

Can't Believe it's Not Rock
Rain
Standard tuning
By $@NDER
Verse(Verse1 is a clean electric guitar verse 2 an acoustic)
|---------------------------------------------------------------|
|---------------------------------------------------------------|
|-5-5-5-5-5-5-5/8-8-8-8-8-8-8-8-4-4-4-4-4-4-4-4-4-4-4-4-4-4-4-4-|
|-5-5-5-5-5-5-5/8-8-8-8-8-8-8-8-4-4-4-4-4-4-4-4-4-4-4-4-4-4-4-4-|
|-3-3-3-3-3-3-3/6-6-6-6-6-6-6-6-2-2-2-2-2-2-2-2-2-2-2-2-2-2-2-2-|
|---------------------------------------------------------------|
Part 2
|----------------------------------------|
|----------------------------------------|
|-2-2-2-2-2-2-------------5-5-5-5-5-5----|
|-2-2-2-2-2-2-2-2-5-5-5-5-5-5-5-5-5-5----|
|-4-4-4-4-4-4-2-2-5-5-5-5-3-3-3-3-3-3----|
|-------------4-4-3-3-3-3----------------|
Part 3
|----------------------------------------|
|-0-0-0-0-0-0-0-0-0-0--------------------|
|-4-4-4-4-4-4-4-4-5-8--------------------|
|-4-4-4-4-4-4-4-4-5-8--------------------|
|-2-2-2-2-2-2-2-2-3-6--------------------|
|----------------------------------------|

There's also a keyboard part you can play on guitar
|----------------------------------------|
|----------------------------------------|
|-12-14----------------------------------|
|-------13-15-9-5------------------------|
|----------------------------------------|
|----------------------------------------|

Almost there ...

Sign in to get your own page with links to favourite songs and more. You are just one click away...

Login with Facebook Login with Google