Log in

One click and you are in

Login with Facebook Login with Google

Why sign up and log in

Guitar Tabs Explorer
I Belong To The Zoo bass tabs for Balang araw

Bass tabs with lyrics

Tuning: Standard (E A D G)

Key: G

Difficulty: Advanced

------------------------------------------------------------------------------------------------------

Intro & 1st Verse:
*Do not play any notes during this part of the song.
Pre-Chorus:

"Baka pwede lang kahit isang saglit"
G|------------------------|------------------------|------------------------|------------------------|
D|------------------------|------------------------|------------------------|------------------------|
A|------------------------|------------------------|------------------------|------------------------|
E|12----------------------|8-----------------------|10----------------------|------------------------|

"Masabi lang na merong konting pagtingin"
G|------------------------|------------------------|------------------------|------------------------|
D|------------------------|------------------------|------------------------|------------------------|
A|------------------------|------------------------|------------------------|------------------------|
E|12----------------------|8-----------------------|10----------------------|------------------------|

"Baka pwede lang kahit pa pasaring"
G|------------------------|------------------------|------------------------|------------------------|
D|------------------------|------------------------|------------------------|------------------------|
A|------------------------|------------------------|------------------------|------------------------|
E|12----------------------|8-----------------------|10----------------------|------------------------|

"Sa sarili ko’y magsisinungaling"
G|------------------------|------------------------|------------------------|------------------------|
D|------------------------|------------------------|------------------------|------------------------|
A|------------------------|------------------------|------------------------|------------------------|
E|12----------------------|8-----------------------|10----------------------|------------------------|

------------------------------------------------------------------------------------------------------

Chorus:
*Do not play any notes during this part of the song.

Instrumental:

G|------------------------|------------------------|------------------------|------------------------|
D|------------------------|------------------------|------------------------|------------------------|
A|3-----------------------|--------------------3-0-|3-----------------------|-----0--10-9-7----------|
E|------------------------|------------------------|------------------------|--------------10-7-\5--\|

------------------------------------------------------------------------------------------------------

Verse:

"Hindi ko lang masabi"
G|------------------------|------------------------|------------------------|------------------------|
D|------------------------|------------------------|------------------------|------------------------|
A|------------------------|------------------------|3-----------------------|------------------------|
E|3-----------------------|------------------------|------------------------|------------------------|

"Ayoko na sayo"
G|------------------------|------------------------|------------------------|------------------------|
D|------------------------|------------------------|------------------------|------------------------|
A|7-----------------------|------------------------|------------------------|------------------------|
E|------------------------|------------------------|8-----------------------|---------------------8\-|

"Tao lang, napapagod din"
G|------------------------|------------------------|------------------------|------------------------|
D|------------------------|------------------------|------------------------|------------------------|
A|------------------------|------------------------|3-----------------------|------------------------|
E|3-----------------------|------------------------|------------------------|------------------------|

"Kaso di ko magawang lumayo"
G|------------------------|------------------------|------------------------|------------------------|
D|------------------------|------------------------|------------------------|------------------------|
A|------------------------|------------------------|3-----------------------|------------------------|
E|5-----------------------|------------------------|------------------------|------------------------|

------------------------------------------------------------------------------------------------------

Pre-Chorus:

"Baka pwede lang kahit isang saglit"
G|------------------------|------------------------|------------------------|------------------------|
D|------------------------|------------------------|------------------------|------------------------|
A|------------------------|------------------------|------------------------|------------------------|
E|12--12------------------|8--8--------------------|10--10------------------|-----10-----------------|

"Masabi lang na merong konting pagtingin"
G|------------------------|------------------------|------------------------|------------------------|
D|------------------------|------------------------|------------------------|------------------------|
A|------------------------|------------------------|------------------------|------------------------|
E|12--12------------------|8--8--------------------|10--10------------------|-----10-----------------|

"Baka pwede lang kahit pa pasaring"
G|------------------------|------------------------|------------------------|------------------------|
D|------------------------|------------------------|------------------------|------------------------|
A|------------------------|------------------------|------------------------|------------------------|
E|12--12------------------|8--8--------------------|10--10------------------|-----10-----------------|

"Sa sarili ko’y magsisinungaling"
G|------------------------|------------------------|------------------------|------------------------|
D|------------------------|------------------------|------------------------|------------------------|
A|------------------------|------------------------|------------------------|------------------------|
E|12--12------------------|8--8--------------------|10----------10----------|10----10----10----5-----|

------------------------------------------------------------------------------------------------------

Chorus:

"Parang tangang kausap ang tala at buwan"
G|------------------------|------------------------|------------------------|------------------------|
D|------------------------|------------------------|------------------------|------------------------|
A|------------------------|------------------------|3---------------------0-|3--3--------------------|
E|3-----------------------|3--3--------------------|------------------------|------------------------|

"naghihintay ng meron sa gitna ng kawalan"
G|------------------------|------------------------|------------------------|------------------------|
D|------------------------|------------------------|------------------------|------------------------|
A|0-----------------------|2--2--------------------|3---------------------0-|3-0-3-------------0h3-0-|
E|------------------------|------------------------|------------------------|------------------------|

"natutong lumipad kahit pagod at sugatan"
G|------------------------|------------------------|------------------------|------------------------|
D|------------------------|------------------------|------------------------|------------------------|
A|------------------------|------------------------|3---------------------0-|3--3--------------------|
E|3-----------------------|3--3--------------------|------------------------|------------------------|

"pag-ahon ko sa lupa’y iiwanan lang naman"
G|------------------------|------------------------|------------------------|------------------------|
D|------------------------|------------------------|------------------------|------------------------|
A|0-----------------------|2--2--------------------|3-----------3---------0-|3-0-3-------3-----3-----|
E|------------------------|------------------------|------------------------|------------------------|

------------------------------------------------------------------------------------------------------

Bridge:

"Kailan ba makakatulog ng mahimbing"
G|------------------------|------------------------|------------------------|------------------------|
D|------------------------|------------------------|------------------------|------------------------|
A|7-----7-----7-----7-----|3-----3-----3-----3-----|5-----5-----5-----5-----|5-----5-----5-----5-----|
E|------------------------|------------------------|------------------------|------------------------|

"Kahit ilang minuto lang na di ikaw ang nasa isip"
G|------------------------|------------------------|------------------------|------------------------|
D|------------------------|------------------------|------------------------|------------------------|
A|7-----7-----7-----7-----|3-----3-----3-----3-----|5-----5-----5-----5-----|5-----5-----5-----5-----|
E|------------------------|------------------------|------------------------|------------------------|

"Baka pupwede lang naman huwag ka munang magparamdam"
G|------------------------|------------------------|------------------------|------------------------|
D|------------------------|------------------------|------------------------|------------------------|
A|7-----7-----7-----7-----|3-----3-----3-----3-----|------------------------|---------------5--------|
E|------------------------|------------------------|7-----------5-----------|3-----------------------|

"Dahil sawang sawa na akong marinig na ako’y kaibigan lang"
G|------------------------|------------------------|------------------------|------------------------|
D|------------------------|------------------------|------------------------|------------------------|
A|3-----3-----3-----3-----|3-----3-----3-----3-----|5-----5--5--5--5--5--5--|5--5--5--5--5--5--5--5--|
E|------------------------|------------------------|------------------------|------------------------|

"Tangina, ba’t ba walang mali sa’yo"
G|------------------------|------------------------|------------------------|------------------------|
D|------------------------|------------------------|------------------------|------------------------|
A|------------------------|3-----3-----3-----3-----|5-----5-----5-----5-----|5-----5-----5-----5-----|
E|0-----0-----0-----0-----|------------------------|------------------------|------------------------|

"Di magawang umiwas at tuluyan nang lumayo"
G|------------------------|------------------------|------------------------|------------------------|
D|------------------------|------------------------|------------------------|------------------------|
A|7-----7-----7-----7-----|3-----3-----3-----3-----|5-----5-----5-----5-----|5-----5-----5-----5-----|
E|------------------------|------------------------|------------------------|------------------------|
"Kahit na anong gawin, sinusuway ko parin"                        "Umaasang.."
G|------------------------|------------------------|------------------------|------------------------|
D|------------------------|------------------------|------------------------|------------------------|
A|------------------------|------------------------|10----------------------|------------------------|
E|12----------------------|8-----------------------|--------------------0h3h|5-----------------------|

------------------------------------------------------------------------------------------------------

Outro:
*Do not play any notes during this part of the song.

------------------------------------------------------------------------------------------------------------
************************************
   h - hammer on
   / - slide up
   \ - slide down
************************************

Almost there ...

Sign in to get your own page with links to favourite songs and more. You are just one click away...

Login with Facebook Login with Google