Log in

One click and you are in

Login with Facebook Login with Google

Why sign up and log in

Guitar Tabs Explorer
I Am They bass tabs for From the day

Bass tabs

Tab by: Paul Bryant


Tuning: Standard: EADG
Difficulty: Novice
[Intro, Verse]
G|---------------------------------------------------------------------------|
D|---------------------------------------------------------------------------|
A|--3-3--3--3-3--3--3--3-5-5-5-----------------------------------------------|
E|-----------------------------5-5--5--5-5--5--5--5--1--1--1-----------------|


[Pre-Chorus]
G|---------------------------------------------------------------------------|
D|---------------------------------------------------------------------------|
A|---------------------------------------------------------------------------|
E|---3------5---------3---------1--------------------------------------------|


[Chorus]
G|---------------------------------------------------------------------------|
D|---------------------------------------------------------------------------|
A|--------3--3---------------------------------------------------------------|
E|------------3--3---5--5-----1--1-------------------------------------------|


[Instrumental]
G|---------------------------------------------------------------------------|
D|---------------------------------------------------------------------------|
A|--3-3--3--3-3--3--3--3-5-5-5-----------------------------------------------|
E|-----------------------------5-5--5--5-5--5--5--5--1--1--1-----------------|

 [Verse/Solo]
G|---------------------------------------------------------------------------|
D|---------------------------------------------------------------------------|
A|--3-3--3--3-3--3--3--3-5-5-5-----------------------------------------------|
E|-----------------------------5-5--5--5-5--5--5--5--1--1--1-----------------|


[Pre-Chorus]
G|---------------------------------------------------------------------------|
D|---------------------------------------------------------------------------|
A|---------------------------------------------------------------------------|
E|---3------5---------3---------1---1----------------------------------------|


[Chorus]
G|---------------------------------------------------------------------------|
D|---------------------------------------------------------------------------|
A|--------3--3---------------------------------------------------------------|
E|------------3--3---5--5-----1--1-------------------------------------------|

 [Bridge]
G|---------------------------------------------------------------------------|
D|---------------------------------------------------------------------------|
A|---------------------------------------------------------------------------|

Almost there ...

Sign in to get your own page with links to favourite songs and more. You are just one click away...

Login with Facebook Login with Google