Log in

One click and you are in

Login with Facebook Login with Google

Why sign up and log in

Guitar Tabs Explorer
I Am Ghost guitar tabs for The malediction

Guitar tabs

Japanese Bonus Track

Tuning: Drop A chord diagramC majorC

I decided to Tab this in Drop C, because most of the songs off of Lovers'' Requiem
are in the same tuning
Intro and Verse

Piano
Whole Thing 2x

Right Hand
|-------------------------------------------------|
|-------5-----------5-----------5-----------5-----|
|-----0---0-------0---0-------0---0-------0---0---|
|---2-------2---2-------2---2-------2---2-------2-|
|-3-----------3-----------3-----------3-----------|
|-------------------------------------------------|
|
|Left Hand
|-------------------------------------------------|
|-------------------------------------------------|
|-------------------------------------------------|
|-------------------------------------------------|
|-------------------------------------------------|
|-------------------------2~----------5~----------|


|-------------------------------------------------|
|-------------------------------------------------|
|-----4-5-4-------4-5-4-------4-------2-----2-----|
|---2-------2---2-------2---2---4-5-4---5-4---5-4-|
|-3-----------3-----------3-----------------------|
|-------------------------------------------------|
|
|
|-------------------------------------------------|
|-------------------------------------------------|
|-------------------------------------------------|
|-------------------------------------------------|
|-0~----------------------2~----------------------|
|-------------------------------------------------|

|-------------------------------------------------|
|-------5-----------5-----------5-----------5-----|
|-----0---0-------0---0-------0---0-------0---0---|
|---2-------2---2-------2---2-------2---2-------2-|
|-3-----------3-----------3-----------3-----------|
|-------------------------------------------------|
|
|
|-------------------------------------------------|
|-------------------------------------------------|
|-------------------------------------------------|
|-------------------------------------------------|
|-3~----------------------------------------------|
|-------------------------2~----------5~----------|


|-------------------------------------------------|
|-------------------------------------------------|
|-----4-5-4-------4-5-4-------4-------2-----2-----|
|---2-------2---2-------2---2---4-5-4---5-4---5-4-|
|-3-----------3-----------3-----------------------|
|-------------------------------------------------|
|
|
|-------------------------------------------------|
|-------------------------------------------------|
|-------------------------------------------------|
|-------------------------------------------------|
|-0~----------------------2~----------------------|
|-------------------------------------------------|

Right before Chorus
Violin
|-------------------------------------------------|
|---------------------------------------------7-10|
|-------------------------------------------7-----|
|-------------------------------------7-9-10------|
|-------------------------------------------------|
|-------------------------------------------------|



Chorus
Guitars
2x
|-------------------------------------------------|
|-------------------------------------------------|
|-5-5-5-5-5-5-5-5-5-5-5-5-------------------------|
|-5-5-5-5-5-5-5-5-5-5-5-5-2-2-2-2-2-2-2-2-2-2-2-2-|
|-3-3-3-3-3-3-3-3-3-3-3-3-2-2-2-2-2-2-2-2-2-2-2-2-|
|-------------------------2-2-2-2-2-2-2-2-2-2-2-2-|

|-------------------------------------------------|
|-------------------------------------------------|
|-2-2-2-2-2-2-2-2-2-2-2-2-4-4-4-4-4-4-4-4-4-4-4-4-|
|-2-2-2-2-2-2-2-2-2-2-2-2-4-4-4-4-4-4-4-4-4-4-4-4-|
|-0-0-0-0-0-0-0-0-0-0-0-0-2-2-2-2-2-2-2-2-2-2-2-2-|
|-------------------------------------------------|

After first time only
|-------------------------------------------------|
|---------------------------------------------7-10|
|-------------------------------------------7-----|
|-------------------------------------7-9-10------|
|-------------------------------------------------|
|-------------------------------------------------|


Violin
2x
|-15-----15---12-----15---15-----14-15-14-12~-----|
|-------------------------------------------------|
|-------------------------------------------------|
|-------------------------------------------------|
|-------------------------------------------------|
|-------------------------------------------------|

|-------------------------------------------------|
|--------12---13-----15---12---12~----------------|
|-12----------------------------------------------|
|-------------------------------------------------|
|-------------------------------------------------|
|-------------------------------------------------|



Verse II
Guitar
|-------------------------------------------------|
|-------------------------------------------------|
|-5~----------------------------------------------|
|-5~----------------------------------------------|
|-3~----------------------------------------------|
|-------------------------------------------------|

Piano
No, I’m not attempting that right now...nor violin
Maybe someday.

Entering Chorus
Violin
|-------------------------------------------------|
|-------------------------------------------------|
|-12~---------11~---------12~---------11~---------|
|-------------------------------------------------|
|-------------------------------------------------|
|-------------------------------------------------|



Chorus
Guitars
2x
|-------------------------------------------------|
|-------------------------------------------------|
|-5-5-5-5-5-5-5-5-5-5-5-5-------------------------|
|-5-5-5-5-5-5-5-5-5-5-5-5-2-2-2-2-2-2-2-2-2-2-2-2-|
|-3-3-3-3-3-3-3-3-3-3-3-3-2-2-2-2-2-2-2-2-2-2-2-2-|
|-------------------------2-2-2-2-2-2-2-2-2-2-2-2-|

|-------------------------------------------------|
|-------------------------------------------------|
|-2-2-2-2-2-2-2-2-2-2-2-2-4-4-4-4-4-4-4-4-4-4-4-4-|
|-2-2-2-2-2-2-2-2-2-2-2-2-4-4-4-4-4-4-4-4-4-4-4-4-|
|-0-0-0-0-0-0-0-0-0-0-0-0-2-2-2-2-2-2-2-2-2-2-2-2-|
|-------------------------------------------------|

After first time only
|-------------------------------------------------|
|---------------------------------------------7-10|
|-------------------------------------------7-----|
|-------------------------------------7-9-10------|
|-------------------------------------------------|
|-------------------------------------------------|

Violin
2x
|-15-----15---12-----15---15-----14-15-14-12~-----|
|-------------------------------------------------|
|-------------------------------------------------|
|-------------------------------------------------|
|-------------------------------------------------|
|-------------------------------------------------|

|-------------------------------------------------|
|--------12---13-----15---12---12~----------------|
|-12----------------------------------------------|
|-------------------------------------------------|
|-------------------------------------------------|
|-------------------------------------------------|



Bridge:
2x
|-------------------------------------------------|
|-------------------------------------------------|
|-------------------------------------------------|
|-2---4---5-----9---7--5--2---4---5-----9---7-----|
|-2---4---5-----9---7--5--2---4---5-----9---7--3*-|
|-2---4---5-----9---7--5--2---4---5-----9---7-----|

Guitar I
|------------------------------------------------------------|
|------------------------------------------------------------|
|-------------------------5~------------5p4p3-----4p3p2------|
|-2~----------3~----------5~-----------------5p4p3-----3p2p0-|
|-3~----------3~----------3~---------------------------------|
|-2~----------3~---------------------------------------------|

Guitar II
|-------------------------------------------------|
|-------------------------------------------------|
|-------------------------5~----------4~----------|
|-2~----------3~----------5~----------4~----------|
|-3~----------3~----------3~----------2~----------|
|-2~----------3~----------------------------------|

Then Both Guitars
|------------------------------------------------------------|
|------------------------------------------------------------|
|-------------------------5~----------4~-----x7---4~---------|
|-2~----------3~----------5~----------4~-----x7---4~---------|
|-3~----------3~----------3~----------2~-----x5---2~---------|
|-2~----------3~---------------------------------------------|

Violin
|-------------------------------------------------------------------------|
|-------------------------------------------------------------------------|
|-------------------------------------------------------------------------|
|-9---9---9---9---7---7---7---7---5p2-5p2-5p2-5p2-4p2-4p2-4p2-4h5p4h5p4~--|
|-------------------------------------------------------------------------|
|-------------------------------------------------------------------------|

Re-Entry
Violin
|---------------------10h12h14h15~----------------|
|-------------10h12h13----------------------------|
|------9h10h12------------------------------------|
|-10h12-------------------------------------------|
|-------------------------------------------------|
|-------------------------------------------------|



Chorus II
Guitars are the same

Violin
|-15-----15---12-----17---15-----14-15-14-12~-----|
|----------------------------------------------12-|
|-------------------------------------------------|
|-------------------------------------------------|
|-------------------------------------------------|
|-------------------------------------------------|

|--------15----------19---------------------------|
|-13----------13----------------------------------|
|-------------------------16---16~----------------|
|-------------------------------------------------|
|-------------------------------------------------|
|-------------------------------------------------|

|-15-----15---12-----17---15-----14-15-14-12~-----|
|----------------------------------------------12-|
|-------------------------------------------------|
|-------------------------------------------------|
|-------------------------------------------------|
|-------------------------------------------------|

|--------15----------19--------19~-----19h20p19~--|
|-13----------13---------------x------------------|
|-------------------------16---16~----------------|
|-------------------------------------------------|
|-------------------------------------------------|
|-------------------------------------------------|



Chorus III
Guitars
|-------------------------------------------------|
|-------------------------------------------------|
|-5-5-5-5-5-5-5-5-5-5-5-5-------------------------|
|-5-5-5-5-5-5-5-5-5-5-5-5-2-2-2-2-2-2-2-2-2-2-2-2-|
|-3-3-3-3-3-3-3-3-3-3-3-3-2-2-2-2-2-2-2-2-2-2-2-2-|
|-------------------------2-2-2-2-2-2-2-2-2-2-2-2-|

|----------------------------------------------------|
|----------------------------------------------------|
|-2---2---------2---2-----4~-------------------------|
|-2---2---------2---2-----4~--------9h10-7h9-5h7-5p4-|
|-0---0---------0---0-----2~-------------------------|
|----------------------------------------------------|

|-------------------------------------------------|
|-------------------------------------------------|
|-5-5-5-5-5-5-5-5-5-5-5-5-------------------------|
|-5-5-5-5-5-5-5-5-5-5-5-5-2-2-2-2-2-2-2-2-2-2-2-2-|
|-3-3-3-3-3-3-3-3-3-3-3-3-2-2-2-2-2-2-2-2-2-2-2-2-|
|-------------------------2-2-2-2-2-2-2-2-2-2-2-2-|

|-------------------------------------------------|
|-------------------------------------------------|drag the
|-2-2-2-2-2-2-2-2-2-2-2-2-4-4-4-4-4-4-4-4-4-4-4-4-| 4
|-2-2-2-2-2-2-2-2-2-2-2-2-4-4-4-4-4-4-4-4-4-4-4-4-| 4
|-0-0-0-0-0-0-0-0-0-0-0-0-2-2-2-2-2-2-2-2-2-2-2-2-| 2
|-------------------------------------------------| out

Violin
|-15-----15---12-----17---15-----17-15-14-12~-----|
|----------------------------------------------12-|
|-------------------------------------------------|
|-------------------------------------------------|
|-------------------------------------------------|
|-------------------------------------------------|

|--------15----------19------19~----19h20-17h19-15h17-15p14-|
|-13----------13--------------------------------------------|
|-------------------------16--------------------------------|
|-----------------------------------------------------------|
|-----------------------------------------------------------|
|-----------------------------------------------------------|

|-15-----15---12-----17---15-----14-15-14-12~-----|
|----------------------------------------------12-|
|-------------------------------------------------|
|-------------------------------------------------|
|-------------------------------------------------|
|-------------------------------------------------|

|--------15----------19--------19~----------------|
|-13----------13----------------------------------|
|-------------------------16----------------------|
|-------------------------------------------------|
|-------------------------------------------------|
|-------------------------------------------------|



Outro
Guitar
|-------------------------------------------------|
|-------------------------------------------------|
|-5~----------------------------------------------|
|-5~----------------------------------------------|
|-3~----------------------------------------------|
|-------------------------------------------------|

Piano
|----------12----------------12----------------12----------------12-------|
|-------------12----------------12----------------12----------------12----|
|-9--11-12-------12-9--11-12-------12-9--11-12-------12-9--11-12-------12-|
|-------------------------------------------------------------------------|
|-------------------------------------------------------------------------|
|-------------------------------------------------------------------------|
|
|
|-------------------------------------------------------------------------|
|-------------------------------------------------------------------------|
|-------------------------------------------------------------------------|
|-9~----------------------------------------------------------------------|
|-7~----------------------------------------------------------------------|
|-------------------------------------2~---------------5~-----------------|


|-------------------------------------------------------------------------|
|----------13-12-------------13-12----------------------10-------10-------|
|-9--11-12-------12-9--11-12-------12-9--11-12-7--11-9-----12-11----12-11-|
|-------------------------------------------------------------------------|
|-------------------------------------------------------------------------|
|-------------------------------------------------------------------------|
|
|
|-------------------------------------------------------------------------|
|-------------------------------------------------------------------------|
|-------------------------------------------------------------------------|
|-------------------------------------------------------------------------|
|-0~----------------------------------2~----------------------------------|
|-------------------------------------------------------------------------|


|----------12----------------12----------------12----------------12-------|
|-------------12----------------12----------------12----------------12----|
|-9--11-12-------12-9--11-12-------12-9--11-12-------12-9--11-12-------12-|
|-------------------------------------------------------------------------|
|-------------------------------------------------------------------------|
|-------------------------------------------------------------------------|
|
|
|-------------------------------------------------------------------------|
|-------------------------------------------------------------------------|
|-------------------------------------------------------------------------|
|-3-----------------------------------------------------------------------|
|-3~----------------------------------------------------------------------|
|-------------------------------------2~---------------5~-----------------|


|-------------------------------------------------------7------------------------------|
|----------13-12-------------13-12----------------------10---------10------------------|
|-9--11-12-------12-9--11-12-------12-9--11-12-7--11-9-----12-11-9----11-12-11---------|
|--------------------------------------------------------------------------------------|
|----------------------------------------S L  O  W      A chord diagramD MajorD     O      W     N----9~-----|
|-------------------------------------------(or rit. for you technical people)---------|
|
|
|--------------------------------------------------------------------------------------|
|--------------------------------------------------------------------------------------|
|--------------------------------------------------------------------------------------|
|--------------------------------------------------------------------------------------|
|-0~----------------------------------2~-------------------------------------------2~--|
|--------------------------------------------------------------------------------------|
										Then it drops to a
										Low A.

Violin
2x
|------------------------------------------------------------------------|
|-------13-12-------------13-12-------------10-12-------------10-12------|
|------------------------------------------------------------------------|
|------------------------------------------------------------------------|
|------------------------------------------------------------------------|
|------------------------------------------------------------------------|

|------------------------------------------------------------------------|
|-------13-12-------------13-12-------------12~--------------------10~---|
|------------------------------------------------------------(second ----|
|-------------------------------------------------------------time only)-|
|------------------------------------------------------------------------|
|------------------------------------------------------------------------|

And that’s it.

↓ Add and view comments below ↓

What do you think about this song and these tabs?

Add your comments, questions, rant or a thumbs up below.

Almost there ...

Sign in to get your own page with links to favourite songs and more. You are just one click away...

Login with Facebook Login with Google