Search tabs and chords

Browse bands and artists

A B C D E F G H I J K L M N O P Q R S T U V W X Y Z #

Log in

[ Register here | Forgot password ]

Guitar Tabs Explorer
Print

Guitar chords with lyrics:

Wonderful Barn chords by Hyukoh

  • Capo on 2nd fret
The 5 Emperors (Hyukoh feat Jung Hyungdon) - Wonderful Barn
Infinite Challenge Music Festival 2015

You can play this on standard tuning, but i prefer play it with capo on 2nd fret
i still cant play the solo part, so i just put the chord instead ^^
and also you can use D7 instead of D (it might sound better)


Intro 

f#|-------------------------------------------------------------------------------|
C#|---------------------------------------------------------------------1---------|
A |--------------0-----------------0------------------0---------------------------|
E |------------2---2p0-----------2---2p0h2----------2---2p0-----------2---2p0h2---|
B |---3-3-3333----------3-3-3333-----------3-3-3333----------3-3-3333-----------3-|
F#|-------------------------------------------------------------------------------|

One, Two, Three, Four!

f#|-------------------------------------------------------------------------------|
C#|---------------------------------------------------------------------1---------|
A |--------------0-----------------0------------------0---------------------------|
E |------------2---2p0-----------2---2p0h2----------2---2p0-----------2---2p0h2---|
B |---3-3-3333----------3-3-3333-----------3-3-3333----------3-3-3333-----------3-|
F#|-------------------------------------------------------------------------------|

f#|-------------------------------------------------------------------------------|
C#|---------------------------------------------------------------------5-4-3-1---|
A |--------------0-----------------0------------------0---------------------------|
E |------------2---2p0-----------2---2p0h2----------2---2p0-----------2-----------|
B |---3-3-3333----------3-3-3333-----------3-3-3333----------3-3-3333-------------|
F#|-------------------------------------------------------------------------------|


Verse 1 
C
georeumma ddego jeotbyeongeul ggwak jwigoseon
D                      F
harul meolda hago jurin baereul chaeweotji
C
geu jageun eongdeongineun swil teumi eobseotgo
  D                       F
todagineun songire ddo yoksimeun bupune Hey Hey

C  D F
C  D F
(or repeat the intro)


Verse 2 
C
siganeun ddo geumse heulleo gidael pumeul ddeonaseo
    D                               F
mot chajeul weddan gose meotjin heotganeul jieotji
    C
bal didil teumdo eobsi nareum gadeuk chaeweotneunde
   D                           F
eoneu nal muneul yeoni ireon dodogi deureotne


Reff :
        C
oh Holy Mama Mama Papa nae du nuneuro bwasseoyo
   D                          F
sechage dameotneunde da teong bieo itneyo
        C
Be Born Again gain gain gain and gain neomu neujeotna bwayo
      D                       F
dasi doraganda haedo nuga nal bada jullanayo Hey Hey Hey


Interlude 
C  D F
C  D F


Verse 3 
       C
jeorin daril buyeojabgo nan seulpido ureosseo
    D                        F
jeo haega ddeoreojimyeon dodogeul jabaya hae
  C
juwireul dullaboda badageul hulteoboni
  D                        F
ogatdeon baljagugi naeggeo hanabbunine

Reff :
        C
oh Holy Mama Mama Papa nae du nuneuro bwasseoyo
   D                          F
sechage dameotneunde da teong bieo itneyo
        C
Be Born Again gain gain gain and gain neomu neujeotna bwayo
      D                       F
dasi doraganda haedo nuga nal bada jullanayo Hey Hey Hey


Solo
C  D F
C  D F

(adlibs)
C
D      F
eomma, appa igi da nae tasiga?
( C D F )
naeneun jal moreugetda naeneun jinjja moreugetda


       C
jibe doraganeun gire naneun ddo huhwereul haeya hae
        D7                                             F
eodiseobuteo manghanjireul molla dasi doraganeun ireul banbokhaeya hae
                C
geunde dasi ddo saenggakhaebwado mwoga mwonjido jal moreugesseo
             D                                 F
appa naega geu tangjainga bwayo And You?ll Say No No No No No No No


Outro 
C D F (repeat)

Comments

Hyukoh guitar chords for Wonderful barn