Search tabs and chords

Browse bands and artists

A B C D E F G H I J K L M N O P Q R S T U V W X Y Z #

Log in

[ Register here | Forgot password ]

Guitar Tabs Explorer
Print

Guitar tabs with lyrics:

Wi Ing Wi Ing tab by Hyukoh

  • Tuning: Standard
Wi Ing Wi Ing - Hyukoh


I'd really suggest listening to the song again (or at least the intro) before you start so you can get A
clear idea of how everything's paced.

    Gm - 355333                  C9 - x32330

e|----|----|--3-|----|----|  e|----|----|----|----|----|
B|----|----|--3-|----|----|  B|----|----|--3-|----|----|
G|----|----|--3-|----|----|  G|----|----|--3-|----|----|
D|----|----|--3-|----|--5-|  D|----|--2-|----|----|----|
A|----|----|--3-|----|--5-|  A|----|----|--3-|----|----|
E|----|----|--3-|----|----|  E|----|----|----|----|----|


   Am - 002210                   D9 - 000212

e|----|----|----|----|----|  e|----|--2-|----|----|----|
B|--1-|----|----|----|----|  B|--1-|----|----|----|----|
G|----|--2-|----|----|----|  G|----|--2-|----|----|----|
D|----|--2-|----|----|----|  D|----|----|----|----|----|
A|----|----|----|----|----|  A|----|----|----|----|----|
E|----|----|----|----|----|  E|----|----|----|----|----|


| *   played quickly before the mute after it
| x   Mute note

Intro
e|---------------------------------------------------------------------------|
B|-----3-----3--x------3-3----x------5------5--x-------5-x-5----x------------|
G|-----3-----3--x------3-3----x------5------5--x-------5-x-5----x------------|
D|--------------x---------*2*-x----------------x---------x--*4*-x------------|
A|--------------x--0-3--------x----------------x-----5---x------x------------|
E|---3---3-3---------------------0-5----5-5--------5-------------------------|
                                                                       (repeat)

Verses 1, 3, and final pre-chorus:

e|---------------------------------------------------------------------------|
B|------3-----3--x------3-x-3----x------5------5--x-------5-x-5----x---------|
G|------3-----3--x------3-x-3----x------5------5--x-------5-x-5----x---------|
D|---------------x--------x--*2*-x----------------x---------x--*4*-x---------|
A|---------------x--0-3---x------x----------------x-----5---x------x---------|
E|--0-3---3-3-----------------------0-5----5-5--------5----------------------|
                                                                       (repeat)

Verse 1
biteulbiteul georeoganeun naui dari

oneuldo uimieopsneun tto haruga heulleogajyo

sarangdo kkirikkiri haneungeora mitneun naneun

jomcheoreom dugeundugeun geoririri jeonhyeoeopsjyo


Pre-chorus
wiingwiing harusarido

cheoryanghan nareul biusdeusi meolli naragajyo

biingbiing doraganeun

sesangdo nareul biusdeusi gyesok kkumteuldaejyo


Chorus
Tell me Tell me, Please don?t tell

charari deutji moshan pyeoni naegen joheulgeoya

Tell me Tell me, Please don?t tell

charari boji moshan pyeoni naegen joheulgeoya


Bridge
Gm       C9
ai ai ai ai ai ai

Am       D9
ai ai ai ai ai ai
             (repeat)

Verse 2
          Gm                          C9
saramdeul bukjeokdaeneun chulgeungirui jihacheoren
           Am                     D9
jomcheoreom kadeujjikgo taboriri jeonhyeoeopsjyo
        Gm                            C9
jibeseo dwingguldwinggul hal ileopseo bindungdaeneun
           Am                         D9
nae moseup neomu chorahaeseo jeongmal joesonghajyo


Pre-chorus
Gm         C9
wiingwiing harusarido
             Am                       D9
cheoryanghan nareul biusdeusi meolli naragajyo
Gm         C9
biingbiing doraganeun
         Am                       D9
sesangdo nareul biusdeusi gyesok kkumteuldaejyo
Gm                C9
ssaeaeng ssaeaeng kalbaramdo
            Am                         D9
sangcheonan nae maeumeul eojjeojineun moshalgeoya
Gm          C9
ttuuk ttuuk tteoreojineun
        Am                       D9
nunmuri eonjenganeun isesangeul deopeulgeoya
Chorus
Gm               C9
Tell me Tell me, Please don?t tell
         Am                          D9
charari deutji moshan pyeoni naegen joheulgeoya
Gm               C9
Tell me Tell me, Please don?t tell
        Am                         D9
charari boji moshan pyeoni naegen joheulgeoya
Gm               C9
Tell me Tell me, Please don?t tell
        Am                                D9
charari neukkyeoboji moshan pyeoni naegen joheulgeoya
Gm               C9
Tell me Tell me, Please don?t tell
        Am                             D9
charari saraboji moshan pyeoni naegen joheulgeoya
e|---------------------------------------------------------------------------|
B|------3-----3--x------3-x-3----x------5------5--x-------5-x-5----x---------|
G|------3-----3--x------3-x-3----x------5------5--x-------5-x-5----x---------|
D|---------------x--------x--*2*-x----------------x---------x--*4*-x---------|
A|---------------x--0-3---x------x----------------x-----5---x------x---------|
E|--0-3---3-3-----------------------0-5----5-5--------5----------------------|

Verse 3
biteulbiteul georeoganeun naui dari

oneuldo uimieopsneun tto haruga heulleogajyo

sarangdo kkirikkiri haneungeora mitneun naneun

jomcheoreom dugeundugeun geoririri jeonhyeoeopsjyo


Pre-chorus
wiingwiing harusarido

cheoryanghan nareul biusdeusi meolli naragajyo

biingbiing doraganeun

Other versions of Wi Ing Wi Ing

Wi ing wi ingChords

Comments

Hyukoh guitar tabs for Wi ing wi ing