Log in

One click and you are in

Login with Facebook Login with Google

Why sign up and log in

Guitar Tabs Explorer
Hydra tabs for The city of flames

Guitar tabs

Play this part 3 times then go to next riff.
1-------------------------------
2-------------------------------
3-------------------------------
4-------------------------------
5--3-2-2-2-2-2-9-x-x-x-7-x-x-x-5
6--5-0-0-0-0-0-7-x-x-x-5-x-x-x-3

1----------------------------------
2----------------------------------
3----------------------------------
4----------------------------------
5--3-2-2-2-2-2---9----7-5-2-2-2-2-2
6--5-0-0-0-0-0-7----5---3-0-0-0-0-0

Almost there ...

Sign in to get your own page with links to favourite songs and more. You are just one click away...

Login with Facebook Login with Google