Search tabs and chords

Search for song, artist or band

Log in

One click and you are in

Login with Facebook Login with Google

Why sign up and log in

Guitar Tabs Explorer
Hüsker Dü bass tabs for Wheels

Bass tabs

Tabbed by BongFuFighter

s=Stop Vibration
b=Bend Strings
r= Release bend
h=hold

Bass:

Pretty simple, through the whole song exept chorus:

G:------------------|
D:------------------|
A:--3-3--------1----|
E:-------1--1-------|
Chorus

  Wheels!          Wheeels!!!!                         Wheels...       Wheeeels!!!!

G:--------------------------------------------------------------------------------------|
D:--------------------------------------------------------------------------------------|
A:-4--4--4-4-4-4--6-6-6-6-6-6-6-6--3-3-----1-3-3----1--4--4--4-4-4-4---6-6-6-6-6-6-6-6--|
E:-------------------------------------1-1------1-1-------------------------------------|


Solo also the Basic Line


G:------------------|
D:------------------|
A:--3-3--------1----|
E:-------1--1-------|

End song with

G:------------------|
D:------------------|
A:--3--------1--3---|
E:-----1--3---------|




Lyrics

On a date with Sharon Tate
I'm gonna pick her up in my new crate
well we go to the movies we go to a drag
the highway patrol puts us both in a bag

wheels, wheels!!!!
wheels, Wheels!!!!

statue of mary sitting on my dash
mother please protect me
help me avoid the crash
I've got a really big engine
and it
goes vroom, vroom
could be a cradle, could be a tomb

wheels, wheels!!!!
wheels, Wheels!!!!

Almost there ...

Sign in to get your own page with links to favourite songs and more. You are just one click away...

Login with Facebook Login with Google