Log in

One click and you are in

Login with Facebook Login with Google

Why sign up and log in

Guitar Tabs Explorer
Hüsker Dü guitar tabs for Warehouse songs and stories album

Warehouse Songs And Stories Album tab by Hüsker Dü

Hüsker Dü guitar tabs for Warehouse songs and stories album

Guitar tabs with lyrics

THESE IMPORTANT YEARS  (Bob Mould)

Chords:

A chord diagramG+G  320033    A chord diagramFF 133211    A chord diagramA minorAm X02210    A chord diagramAsus4Asus4 X02230    A chord diagramE minorEm 022000

A chord diagramB5B5 X244XX   A chord diagramC5C5 X355XX    A chord diagramD5D5 X577XXX   D5/B  7577XX    A chord diagramC majorC  X32010
Intro Riff (brackets indicate ghost notes):

        A chord diagramG+G             A chord diagramFF      A chord diagramA minorAm          A chord diagramFF   A chord diagramA minorAm              A chord diagramD MajorD
e:----------3---3---|------------------|-------------------|-------------------|
B:----------3---3---|------------------|----(1)-(1)--0-----|-3---3---3(3-3-3)--|
G:----------0---0---|(2)(2)--2---2-2---|(2)--2---2-----2---|-2---2---4p2p0h2---|
D:----------0-------|-3--3---2---2-2---|-3---2---2-----0---|-0---0---0(0-0-0)--|
A:-10-\-2---2-------|-3--3---0---0-0---|-3---0---0---------|-------------------|
E:------3---3-------|(1)(1)------------|(1)----------------|-------------------|

A chord diagramG+G                     A chord diagramFF      A chord diagramA minorAm          A chord diagramFF   A chord diagramA minorAm              A chord diagramD MajorD
e:-----3------3-3---|------------------|-------------------|-------------------|
B:-----3------3-3---|------------------|----(1)-(1)--0-----|-3---3---3(3-3-3)--|
G:-----0------0-0---|(2)(2)--2---2-2---|(2)--2---2-----2---|-2---2---4p2p0h2---|
D:-0---0------0-0---|-3--3---2---2-2---|-3---2---2-----0---|-0---0---0(0-0-0)--|
A:-2---2------------|-3--3---0---0-0---|-3---0---0---------|-------------------|
E:-3---3------------|(1)(1)------------|(1)----------------|-------------------|

|------------------------------- Play three times -----------------------------|

A chord diagramG+G                      A chord diagramE minorEm
Well, you get up every morning
A chord diagramC5C5
And you see, it's still the

   Am(Riff)
e:-0---------0-0-0---|
B:-1---1---3-1-0-1---|
G:-2---2---2-2-2-2---|
D:-2---2---2-2-2-2---|
A:-0---0-------------|
E:-------------------|
   same

A chord diagramG+G                  A chord diagramE minorEm
All the floors and all the walls
A chord diagramC5C5                 Am(Riff)
And all the rest remains
A chord diagramG+G               A chord diagramE minorEm
Nothing changes fast enough
A chord diagramC5C5               Am(Riff)
The hurry, worry days
A chord diagramG+G                    A chord diagramE minorEm
It makes you want to give it up
A chord diagramC5C5               Am(Riff)
And drift into a haze

A chord diagramB5B5  A chord diagramC5C5      A chord diagramD5D5       D5/B
Revelations seems to be another way
A chord diagramB5B5                  A chord diagramC5C5
To make the days go faster any-
   D(Riff)
e:-----------------------------------|
B:-3-3-3-3---3-3-3-3-----3---3---3---|
G:-2-2-2-2---2-2-2-2---4-2---0---2---|
D:-0-0-0-0---0-0-0-0---0-0-------0---|
A:-----------------------------------|
E:-----------------------------------|
  -ways

A chord diagramG+G                    A chord diagramE minorEm
We're all exchanging pleasantries
   A chord diagramC5C5            Am(Riff)
No matter how we feel
A chord diagramG+G                    A chord diagramE minorEm
And no one knows the difference
          A chord diagramC5C5             Am(Riff)
'Cause it all seems so unreal
      A chord diagramG+G             A chord diagramE minorEm
You'd better grab a hold of something
A chord diagramC5C5               Am(Riff)
Simple but it's true
             A chord diagramG+G                 A chord diagramE minorEm
If you don't stop to smell the roses now
A chord diagramC5C5                   Am(Riff)
They might end up on you

A chord diagramB5B5   A chord diagramC5C5           A chord diagramD5D5       D5/B             A chord diagramB5B5
Expectations only mean you really think you know
       A chord diagramC5C5                   D(Riff)
What's coming next, and you don't

A chord diagramG+G                    A chord diagramA minorAm
Yearbooks with their autographs
     A chord diagramC majorC
From friends you might have

   D(Riff 2)
e:---------------|
B:-3---3---3-3---|
G:-2---4---4-2---|
D:-0---0---0-0---|
A:---------------|
E:---------------|
   had

A chord diagramG+G                A chord diagramA minorAm
These are your important years
      A chord diagramC majorC                D(Riff 2)
You'd better make them last
A chord diagramG+G              A chord diagramA minorAm               A chord diagramC majorC          D(Riff 2)
Falling in and out of love just like...
A chord diagramG+G              A chord diagramA minorAm                    A chord diagramC majorC     A chord diagramD MajorD
These are your important years, your life

Break:

   A chord diagramG+G
e:-----3---3-3-3-3-----------3-3-3-3-------3---3-3-3-3-------3---3-3-3-3-|
B:-----3---3-3-3-3-----------3-3-3-3-------3---3-3-3-3-------3---3-3-3-3-|
G:-----0---0-0-0-0-----------0-0-0-0---0---0---0-0-0-0-------0---0-0-0-0-|
D:-----0---0-0-0-0---0---0---0-0-0-0---0---0---0-0-0-0---0---0---0-0-0-0-|
A:-2---2---2-2-2-2---2---3-------------------------------3---------------|
E:-3---3---3-3-3-3-------------------------------------------------------|

 |------------------------ play three times -----------------------------|


e:-----3---3-3-3-3-------3---3-3-3-3---------------------------3-|
B:-----3---3-3-3-3-------3---3-3-3-3---------------------------3-|
G:-----0---0-0-0-0-------0---0-0-0-0---0-----------------------0-|
D:-----0---0-0-0-0---0---0---0-0-0-0-------0-------------------0-|
A:-2---2---2-2-2-2---2-------------------------3---2---3---2---2-|
E:-3---3---3-3-3-3---------------------------------------------3-|

A chord diagramB5B5          A chord diagramC5C5       A chord diagramD5D5         D5/B
Once you've seen the light, you finally
A chord diagramB5B5         A chord diagramC5C5               D(Riff)
Realize it might end up all right

It might end up all right now

A chord diagramG+G                    A chord diagramA minorAm
Yearbooks with their autographs
     A chord diagramC majorC                      D(Riff 2)
From friends you might have had
A chord diagramG+G                A chord diagramA minorAm
These are your important years
      A chord diagramC majorC                D(Riff 2)
You'd better make them last
    A chord diagramG+G              A chord diagramA minorAm               A chord diagramC majorC      D(Riff 2)
And falling in and out of love just like...
A chord diagramG+G              A chord diagramA minorAm                    A chord diagramC majorC     D(Riff 2)
These are your important years, your life

A chord diagramG+G  A chord diagramA minorAm  A chord diagramC majorC  D(Riff 2)   (played four times)

A chord diagramG+G                A chord diagramA minorAm                  A chord diagramC majorC     D(Riff 2)  |(played four
These are your important years, your life             | times)

A chord diagramG+G  A chord diagramA minorAm  A chord diagramC majorC  D(Riff 2)   (played four times)

G(hold).

TP.



CHARITY, CHASTITY, PRUDENCE AND HOPE (Grant Hart)

Opening Riff/Verse Riff:

   A chord diagramD MajorD                           A chord diagramG+G
e:---------------------------|-3-3-3-3---3-3-3-3---|
B:-3-3---3-------3-------3---|-3-3-3-3---3-3-3-3---|
G:-2-2---2-------2-------2---|-0-0-0-0---0-0-0-0---|
D:-0-0---0-h-2-p-0-------0---|-5-5-5-5---5-5-5-5---|
A:-------------------2-------|---------------------|
E:---------------------------|---------------------|
 |----played three times-----|


INTRO:
Opening Riff (played twice)

A chord diagramD MajorD                                 A chord diagramG+G
She gave her little child a name
A chord diagramD MajorD                                 A chord diagramG+G
A chord diagramA augmentedA ward of welfare she became
A chord diagramD MajorD                                 A chord diagramG+G
And then one day she met a man
A chord diagramD MajorD                                 A chord diagramG+G
Digging through the trash for cans

   A chord diagramC5C5 (X = left-hand muting ie.release pressure on fretted strings)
e:------------------------------------------------------|
B:------------------------------------------------------|
G:-5---5---X-X-X-X---5---5---X-X-X-X---5---5---X-X-X-X--|
D:-5---5---X-X-X-X---5---5---X-X-X-X---5---5---X-X-X-X--|
A:-3---3---X-X-X-X---3---3---X-X-X-X---3---3---X-X-X-X--|
E:------------------------------------------------------|
   Charity,          chastity,         prudence    and

   A chord diagramD5D5
e:------------------------------------------------------------------------|
B:------------------------------------------------------------------------|
G:-7---7---7-7-7-7---7---7---7-7-7-7---7---7---7-7-7-7---7---7---7-7-7-7--|
D:-0---0---0-0-0-0---0---0---0-0-0-0---0---0---0-0-0-0---0---0---0-0-0-0--|
A:-0-h-5---5-5-5-5---5---5---5-5-5-5---0-h-5---5-5-5-5---5---5---5-5-5-5--|
E:------------------------------------------------------------------------|
   hope

A chord diagramD MajorD                                A chord diagramG+G
It was his aluminum
A chord diagramD MajorD                                A chord diagramG+G
That attracted her to him
A chord diagramD MajorD                                A chord diagramG+G
And quite a day there did unfold
A chord diagramD MajorD                                A chord diagramG+G
Turning garbage into gold

A chord diagramC5C5                               A chord diagramD5D5
Charity, chastity, prudence, and hope


Solo:

   A chord diagramD MajorD                                                     A chord diagramG+G
e:-2---2---2-2-2-2---2---2---2-2-2-2---2---2---2-2-2-2-------------------------|
B:-3---3---3-3---3---3---3---3-3---3---3---3---3-3---3---3-3--3--3--3--3--3--3-|
G:-2---2---4-2-2-2---2---2---4-2-2-2---2---2---4-2-2-2---0-0--0--0--0--0--0--0-|
D:-0---0---0-0-2-----0---0---0-0-2-----0---0---0-0-2-----5-5--5--5--5--5--5--5-|
A:-----------------------------------------------------------------------------|
E:-----------------------------------------------------------------------------|

   A chord diagramD MajorD                                                     A chord diagramG+G
e:-2---2---2-0-2-3---2---2---2-0-2-3---2---2---2-0-2-3-------------------------|
B:-3---3---3-3-3-3---3---3---3-3-3-3---3---3---3-3-3-3---3-3--3--3--3--3--3--3-|
G:-------------------------------------------------------0-0--0--0--0--0--0--0-|
D:-------------------------------------------------------5-5--5--5--5--5--5--5-|
A:-----------------------------------------------------------------------------|
E:-----------------------------------------------------------------------------|

   A chord diagramD MajorD                                                     A chord diagramG+G
e:-------------------------------------------------------3---3---3-3-3---------|
B:-3---3---3/5-3-3---3/5\3---3(3)3-3---3/5\3---3h5-3-3---3---3---3-3-3---------|
G:-2---2---2/4-2-2---2/4\2---2h4-2-2---2/4\2---2(2)2-2---4---4---4-4-4---4-/-7-|
D:-------------------------------------------------------5---5---5-5-5---0--(0)|
A:-----------------------------------------------------------------------------|
E:-----------------------------------------------------------------------------|

   A chord diagramD MajorD                                                        A chord diagramG+G
e:-----------10-10-10--14-14-14--14-14-12--14--12--14-14-14-15-15-15-15-15-15--|
B:-10-10-10--10-10-10--12-12-12--12-12-12--12--12--12-12-12-12-12-12-12-12-12--|
G:-7--7--7---7--7--7-----------------------------------------------------------|
D:-7--7--7---------------------------------------------------------------------|
A:-----------------------------------------------------------------------------|
E:-----------------------------------------------------------------------------|

A chord diagramC5C5                               A chord diagramD5D5
Charity, chastity, prudence, and hope

A chord diagramD MajorD                                   A chord diagramG+G
She took that money in a trunk
A chord diagramD MajorD                                   A chord diagramG+G
And bought a bunch of worthless junk
A chord diagramD MajorD                                   A chord diagramG+G
And now they're back where they began
A chord diagramD MajorD                                   A chord diagramG+G
Digging through the trash for cans

A chord diagramC5C5                               A chord diagramD5D5    | play four times |
Charity, chastity, prudence, and hope  | hold final A chord diagramD MajorD    |

TP.



STANDING IN THE RAIN  (Bob Mould)

Chords: A chord diagramA5A5 X022XX   A5/G# 4X22XX   A chord diagramG5G5 355XXX   A chord diagramF#5F#5 244XXX

        A chord diagramD MajorD  XX023X   D/C#  X4023X   A chord diagramG+G  320033   A chord diagramE MajorE   022100

     A chord diagramAsus2Asus2 X02200   A chord diagramB5B5    X2440X   A chord diagramD5D5 X5770X   A chord diagramE5E5  X7990X

A chord diagramA5A5         A5/G#
Looking outside my window
    A chord diagramG5G5    A chord diagramF#5F#5
And all I see is grey
A chord diagramD MajorD                D/C#
I'm watching the clouds roll by every

   A chord diagramB minorBm Riff:
e:-----------------------|
B:-3--3-3-3-5---3--2--3--|
G:-4--4-4-4-4---4--4--4--|
D:-----------------------|
A:-----------------------|
E:-----------------------|
   day

A chord diagramA5A5            A5/G#
And we make a reservation
    A chord diagramF#5F#5              A chord diagramE MajorE
You say you'll be on time
A chord diagramD MajorD               D/C#
I say, "I might be a little

e:-----------------------|
B:-3--3-3-3-5---3--2--3--|
G:-4--4-4-4-4---4--4--4--|
D:-----------------------|
A:-----------------------|
E:-----------------------|
   late"

A chord diagramG+G                            A chord diagramE MajorE
Well, I pull it together and brush my teeth

   A chord diagramD MajorD Riff:
e:----------------------------|
B:-5-3---2-------2---3-3--3-3-|
G:-2-2---2---4---2---2-2--2-2-|
D:-----------0-------0-0--0-0-|
A:----------------------------|
E:----------------------------|
   Comb my hair

A chord diagramG+G         A chord diagramE MajorE
I stop to think and I can see you
   A chord diagramD MajorD
e:----------------------------|
B:-5-3---2-------2---3-3--3-3-|
G:-2-2---2---4---2---2-2--2-2-|
D:-----------0-------0-0--0-0-|
A:----------------------------|
E:----------------------------|
   there
A chord diagramG+G                           A chord diagramE MajorE
I think of the times you've waited
A chord diagramD MajorD    /   ////  /
Just for me to care

   A chord diagramD MajorD                                                         A chord diagramE MajorE
e:-----------------------------|-----------------------------0--|
B:-3-3-------3-------3---------|-------3-3-------3------3----0--|
G:-2-2-------2-------2---------|-------2-2-------2------2----1--|
D:-0-0-------0-------0---------|-------0-0-------0------0----2--|
A:-------4-------4-------------|-------------4--------4------2--|
E:-----------------------------|--------------------------2--0--|
                       I care about you

A chord diagramA5A5           A5/G#
Checking the clock inside
    A chord diagramG5G5               A chord diagramF#5F#5
The room we call our own

A chord diagramD MajorD              D/C#
I see that I'm late, I should get

e:-----------------------|
B:-3--3-3-3-5---3--2--3--|
G:-4--4-4-4-4---4--4--4--|
D:-----------------------|
A:-----------------------|
E:-----------------------|
   going

A chord diagramA5A5       A5/G#
Hop on a local transit
A chord diagramF#5F#5             A chord diagramE MajorE
Spending all my change
A chord diagramD MajorD               D/C#
And I can still hear the tele-

e:-----------------------|
B:-3--3-3-3-5---3--2--3--|
G:-4--4-4-4-4---4--4--4--|
D:-----------------------|
A:-----------------------|
E:-----------------------|
  -phone
A chord diagramG+G                        A chord diagramE MajorE
I wanna go back, but I'm halfway to The

   A chord diagramD MajorD
e:----------------------------|
B:-5-3---2-------2---3-3--3-3-|
G:-2-2---2---4---2---2-2--2-2-|
D:-----------0-------0-0--0-0-|
A:----------------------------|
E:----------------------------|
   place where we will meet

A chord diagramG+G       A chord diagramE MajorE
And I'm half dead on my

   A chord diagramD MajorD
e:----------------------------|
B:-5-3---2-------2---3-3--3-3-|
G:-2-2---2---4---2---2-2--2-2-|
D:-----------0-------0-0--0-0-|
A:----------------------------|
E:----------------------------|
   feet

A chord diagramG+G          A chord diagramE MajorE
And once I get there, I see
A chord diagramD MajorD   / ////        /
Everything's the same

   A chord diagramD MajorD                                                        E(Hold)
e:---------------------------|------------------------------0--|
B:-3-3-------3-------3-------|--------3-3-------3------3----0--|
G:-2-2-------2-------2-------|--------2-2-------2------2----1--|
D:-0-0-------0-------0-------|--------0-0-------0------0----2--|
A:-------4-------4-----------|--------------4--------4------2--|
E:---------------------------|---------------------------2--0--|
                      Here comes the rain                   You left me standing

A chord diagramAsus2Asus2 /  ////  A chord diagramB5B5 / ////  A chord diagramD5D5 / //// / / ////

A chord diagramAsus2Asus2 /  ////  A chord diagramB5B5 / ////  A chord diagramD5D5 / //// E5/ ////

A chord diagramAsus2Asus2 /  ////  A chord diagramB5B5 / ////  A chord diagramD5D5 / //// E5/ ////

A chord diagramD5D5    /  ////  A chord diagramE5E5 / ////  A chord diagramD5D5 / //// E5/ ////

  Solo Riff (played over D5/E5 above)
e:----------------------------------|
B:----------------------------------|
G:-9---9---7-h-9---9-b-11-9---7---9-|
D:----------------------------------|
A:----------------------------------|
E:----------------------------------|

A chord diagramG+G                                A chord diagramE MajorE
I should have guessed that you'd stand me up

   A chord diagramD MajorD
e:----------------------------|
B:-5-3---2-------2---3-3--3-3-|
G:-2-2---2---4---2---2-2--2-2-|
D:-----------0-------0-0--0-0-|
A:----------------------------|
E:----------------------------|
   Why did I even go, now

A chord diagramG+G     A chord diagramE MajorE
And I guess it goes to

   A chord diagramD MajorD
e:----------------------------|
B:-5-3---2-------2---3-3--3-3-|
G:-2-2---2---4---2---2-2--2-2-|
D:-----------0-------0-0--0-0-|
A:----------------------------|
E:----------------------------|
   show

A chord diagramG+G            A chord diagramE MajorE
The snow may well thaw out, but it
A chord diagramD MajorD     /     / /  /   /
Goes right down the drain

   A chord diagramD MajorD                           A chord diagramE MajorE
e:---------------------------------------------------|
B:-3-3-------3---3-3-------3---5---5-----5-5-5-5-5-5-|
G:-2-2-------2---2-2-------2---4---4-----4-4-4-4-4-4-|
D:-0-0-------0---0-0-------0---2---2-----2-2-2-2-2-2-|
A:-------4-------------4-----------------------------|
E:---------------------------------------------------|
You left me  You left  me      You left me You left me

A chord diagramAsus2Asus2       A chord diagramB5B5              A chord diagramD5D5    A chord diagramE5E5
You left me standing in the rain
A chord diagramAsus2Asus2       A chord diagramB5B5              A chord diagramD5D5    A chord diagramE5E5
You left me standing in the rain
A chord diagramAsus2Asus2       A chord diagramB5B5              A chord diagramD5D5    A chord diagramE5E5
You left me standing in the rain

A chord diagramD5D5 / ///  A chord diagramE5E5 /  /  //
Oh   I    Know now

A chord diagramAsus2Asus2       A chord diagramB5B5              A chord diagramD5D5    A chord diagramE5E5
You left me standing in the rain
A chord diagramAsus2Asus2       A chord diagramB5B5              A chord diagramD5D5    A chord diagramE5E5
You left me standing in the rain
A chord diagramAsus2Asus2       A chord diagramB5B5              A chord diagramD5D5    A chord diagramE5E5
You left me standing in the rain

A chord diagramD5D5 / ///            A chord diagramE5E5 / / //
Why oh why oh why   D'you make me go now

A chord diagramAsus2Asus2   A chord diagramB5B5   A chord diagramD5D5   A chord diagramE5E5
now     now  now
A chord diagramAsus2Asus2   A chord diagramB5B5   A chord diagramD5D5   A chord diagramE5E5
now     now  now
A chord diagramAsus2Asus2   A chord diagramB5B5   A chord diagramD5D5   A chord diagramE5E5
now     now  now

A chord diagramD5D5 / ///  A chord diagramE5E5 /  /  //
Oh   I    Know now

A chord diagramAsus2Asus2       A chord diagramB5B5              A chord diagramD5D5    A chord diagramE5E5
You left me standing in the rain
A chord diagramAsus2Asus2       A chord diagramB5B5              A chord diagramD5D5    A chord diagramE5E5
You left me standing in the rain
A chord diagramAsus2Asus2       A chord diagramB5B5              A chord diagramD5D5    A chord diagramE5E5
You left me standing in the rain

A chord diagramD5D5 / ///   E5(hold)
Oh now     Oh....

TP.



BACK FROM SOMEWHERE  (Grant Hart)

Chords:

A chord diagramG+G  320033  A chord diagramA7sus4A7sus4 X02233  A chord diagramCsus2Csus2 X32033  A chord diagramE minorEm 022000  A chord diagramC majorC X32010

A chord diagramD MajorD  XX0232  A chord diagramDsus4Dsus4  XX0233    A chord diagramD5D5  XX0235


Intro:

   A chord diagramG+G                  A chord diagramA7sus4A7sus4  A chord diagramCsus2Csus2   A chord diagramG+G                  A chord diagramA7sus4A7sus4     A chord diagramCsus2Csus2
e:-3---3------3-3-3---3---3---3---3-|-3---3------3-3-3-------------------------|
B:-3---3------3-3-3---3---3---3---3-|-3---3------3-3-3---12(12-12)--12-12---0--|
G:-0---0------0-0-0---2---2---0---0-|-0---0------0-0-0---14b16r14---14-14---12-|
D:-0---0------0-0-0---2---2---2---2-|-0---0------0-0-0-------------------------|
A:-2---2------2-2-2---0---0---3---3-|-2---2------2-2-2-------------------------|
E:-3---3------3-3-3-----------------|-3---3------3-3-3-------------------------|

   A chord diagramG+G                  A chord diagramA7sus4A7sus4  A chord diagramCsus2Csus2   A chord diagramG+G                  A chord diagramA7sus4A7sus4    A chord diagramCsus2Csus2
e:-3---3------3-3-3---3---3---3---3-|-3---3------3-3-3---3---3-3---3-3---3--|
B:-3---3------3-3-3---3---3---3---3-|-3---3------3-3-3---3---3-3---3-3---3--|
G:-0---0------0-0-0---2---2---0---0-|-0---0------0-0-0---2-b-3r2---2-2---0--|
D:-0---0------0-0-0---2---2---2---2-|-0---0------0-0-0----------------------|
A:-2---2------2-2-2---0---0---3---3-|-2---2------2-2-2----------------------|
E:-3---3------3-3-3-----------------|-3---3------3-3-3----------------------|

        A chord diagramG+G                      A chord diagramA7sus4A7sus4    A chord diagramCsus2Csus2
Now you look like you just got back from somewhere
A chord diagramG+G                  A chord diagramA7sus4A7sus4         A chord diagramCsus2Csus2
Somewhere yeah you know that it's true
A chord diagramG+G                A chord diagramA7sus4A7sus4    A chord diagramCsus2Csus2
Together we went nearly to nowhere
A chord diagramG+G                    A chord diagramA7sus4A7sus4 A chord diagramCsus2Csus2
Nowhere really worth going to

A chord diagramE minorEm              A chord diagramC majorC
Standing at the city center
A chord diagramE minorEm            A chord diagramD MajorD
In the middle of the winter
A chord diagramE minorEm                A chord diagramC majorC                A chord diagramD MajorD   A chord diagramDsus4Dsus4   A chord diagramD5D5
I was waiting for you and you were due

     A chord diagramG+G              A chord diagramA7sus4A7sus4        A chord diagramCsus2Csus2
When I got back you said you were leaving
A chord diagramG+G           A chord diagramA7sus4A7sus4     A chord diagramCsus2Csus2
Leaving you said right away
A chord diagramG+G                       A chord diagramA7sus4A7sus4    A chord diagramCsus2Csus2
And coming back for the sake of retrieving
A chord diagramG+G                      A chord diagramA7sus4A7sus4  A chord diagramCsus2Csus2
Things you'd forgotten on that day

A chord diagramE minorEm           A chord diagramC majorC
Still now my eyes are burning
A chord diagramE minorEm                A chord diagramD MajorD
With the sight of your returning
A chord diagramE minorEm           A chord diagramC majorC                 A chord diagramD MajorD   A chord diagramDsus4Dsus4   A chord diagramD5D5
Everywhere I look I'm finding you
           A chord diagramG+G
I remember you

   A chord diagramG+G                 A chord diagramA7sus4A7sus4 A chord diagramCsus2Csus2  A chord diagramG+G                   A chord diagramA7sus4A7sus4  A chord diagramCsus2Csus2
e:-------------------------------|-------------------------------------------|
B:-0-0---0---0-0-0---0-0---0-0---|-0(0)0-0(0)-0-0-(0)--0-(0)---0----0(0)-0---|
G:-4-4---2---4-5-4---4-2---0-0---|-7b8---9b10---11\9---11/14---11---9b10-7---|
D:-------------------------------|-------------------------------------------|
A:-------------------------------|-------------------------------------------|
E:-------------------------------|-------------------------------------------|

   A chord diagramG+G         A chord diagramA7sus4A7sus4  A chord diagramCsus2Csus2     A chord diagramG+G          A chord diagramA7sus4A7sus4      A chord diagramCsus2Csus2
e:---------------------------|-3-3-3----------------------------------|
B:-0-0-0-0---0-0-0---0---0---|-3-3-3------0--(0)-(0)--0-0---0-0---0---|
G:-4-2-4-5---4-5-4---0---0---|-0-0-0------4-b(5)r(4)--0-0---0-2---0---|
D:---------------------------|----------------------------------------|
A:---------------------------|----------------------------------------|
E:---------------------------|----------------------------------------|

   A chord diagramE minorEm            A chord diagramC majorC                     A chord diagramE minorEm                A chord diagramD MajorD
e:---------------3---3-3---3---------|-----------------------------------|
B:-----5---------3---3-3---3---------|-----5---5-5---8---8-8---8-8-8-7---|
G:-----4---4-2---4---5-5---5p4-p-0---|-----4---4-4---7---7-7---7-7-7-7---|
D:-----2---2-2-----------------------|-----2---2-2-/-5-------------------|
A:-----------------------------------|-----------------------------------|
E:-0---------------------------------|-0---------------------------------|

   A chord diagramE minorEm            A chord diagramC majorC                     A chord diagramD MajorD
e:---------------3-3---3-------------|---7-8-7----7-8-7----7-8-7----7-8-7---|
B:-----5---------3-3---3---3-3---3---|---7-7-7------------------------------|
G:-----4---4-2---5-5---4---2-2---0---|-7--------7--------7--------7---------|
D:-----2---2-2-----------------------|-0--------0--------0--------0---------|
A:-----------------------------------|--------------------------------------|
E:-0---------------------------------|--------------------------------------|

   Slowing:
e:-7-8-7-----7-8-7--------10------10------10------10---|
B:-7-7-7-----7-7-7--------7-------7-------7-------7----|
G:-------7----------------7-------7-------7-------7----|
D:-------0----------------0-------0-------0-------0----|
A:-----------------------------------------------------|
E:-----------------------------------------------------|
                                     Fam - ili - ar

A chord diagramG+G              A chord diagramA7sus4A7sus4      A chord diagramCsus2Csus2
places that we turned into gardens
A chord diagramG+G                  A chord diagramA7sus4A7sus4         A chord diagramCsus2Csus2
Somewhere yeah you know that it's true
A chord diagramG+G                     A chord diagramA7sus4A7sus4   A chord diagramCsus2Csus2
I'm begging you now a thousand pardons
A chord diagramG+G                          A chord diagramA7sus4A7sus4    A chord diagramCsus2Csus2
For all of the wastelands we've been through

A chord diagramE minorEm         A chord diagramC majorC
I remember asking whether
A chord diagramE minorEm                A chord diagramD MajorD
Or where we could be together
A chord diagramE minorEm            A chord diagramC majorC               D(hold)
You smiled at me and you said soon

TP.



ICE COLD ICE  (Bob Mould)

       A chord diagramD MajorD                             A chord diagramCsus2Csus2    A chord diagramG+G
|------------------------------------3--3-3---3--3-3---|   Played
|T-----3--3-3------------------------3--3-3---3--3-3---|   three
|A-----2--2-2--------2--(2)-(2)------0--0-0---0--0-0---|   times
|B-----0--0-0-------(0)--2---3-------2--2-2---0--0-0---|
|------0--0-0------------------------3--3-3---2--2-2---|
|---------------------------------------------3--3-3---|

       A chord diagramD MajorD                             A chord diagramCsus2Csus2
|------------------------------------3--3-3---|
|T-----3--3-3------------------------3--3-3---|
|A-----2--2-2--------2--(2)-(2)------0--0-0---|
|B-----0--0-0-------(0)--2---3-------2--2-2---|
|------0--0-0------------------------3--3-3---|
|---------------------------------------------|

      A chord diagramG5G5      A chord diagramFsus2Fsus2    A chord diagramA7sus4A7sus4
|-----3---3---1/3------5---3---1---3------| Played
|T----3---3---1/3------5---3---1---3------| three
|A----0---0---0--------0---0---0---0------| times
|B----0---0---0--------0---0---0---0------|
|-----------------------------------------|
|-----3---3---1/3------5---3---1---3------|

                Pick Scrape- - - -|
|-----3---3---|----------------------|
|T----3---3---|----------------------|
|A----0---0---|----------------------|
|B----0---0---|-----X\---------------|
|-------------|-----X\----X\---------|
|-----3---3---|-----------X\---------|

    A chord diagramD MajorD                                               A chord diagramC majorC
|--------------------------------------1--0-----------------| Played
|T--3-----------------------------------------3--1--1-------| four
|A--2-----------------------------------------------0-------| times
|B--0-----------------------------------------------2-------|
|---0-----------------------------------------------3-------|
|-----------------------------------------------------------|
    Barren lands and barren minds     (Ice-  cold-  ice)
    In another place and time         (Ice-  cold-  ice)
    I feel I've never known myself    (Ice-  cold-  ice)
    Frozen in the sand again          (Ice-  cold-  ice)

    A chord diagramF5F5            A chord diagramBb5Bb5 A chord diagramF5F5  A chord diagramBb5Bb5 A chord diagramF5F5                      A chord diagramBb5Bb5 A chord diagramF5F5  A chord diagramBb5Bb5 A chord diagramF5F5
|-----------------------------------------------------------------------|
|T----------------------------------------------------------------------|
|A----------------3-------3---------------------------3-------3---------|
|B--3---3---3-3-3-3---3---3---3---------3---3---3-3-3-3---3---3---3-----|
|---3---3---3-3-3-1---3---1---3---------3---3---3-3-3-1---3---1---3-----|
|---1---1---1-1-1-1---1---1---1---------1---1---1-1-1-1---1---1---1-----|
          See the blank expressions           Waiting for progression

     A chord diagramG5G5                               A chord diagramA5A5                    A chord diagramBb5Bb5
|------------------------------------------------------------------------|
|C-----------------------------------------------------------------------|
|R------------------------------------2---------------------3------------|
|D---5--------------------------------2---------------------3------------|
|----5--------------------------------0---------------------1------------|
|----3-------------------------------------------------------------------|
    Standing still in place and time  There's no one moving  They're only

     A chord diagramDm7Dm7
|----------8-----------8-----------8-----------8-----|
|T------6-----6-----6-----6-----6-----6-----6-----6--|
|A---7-----------7-----------7-----------7-----------|
|B---0-----------0-----------0-----------0-----------|
|----------------------------------------------------|
|----------------------------------------------------|
     Stan- ding  still  in  ice   cold  ice  cold -

      A chord diagramG5G5      A chord diagramFsus2Fsus2    A chord diagramA7sus4A7sus4
|-----3---3---1/3------5---3---1---3------|
|T----3---3---1/3------5---3---1---3------|
|A----0---0---0--------0---0---0---0------| Played
|B----0---0---0--------0---0---0---0------| twice
|-----------------------------------------|
|-----3---3---1/3------5---3---1---3------|
    - Ice

     A chord diagramDm7Dm7
|----------8-----------8-----------8-----------8-----|
|T------6-----6-----6-----6-----6-----6-----6-----6--|
|A---7-----------7-----------7-----------7-----------|
|B---0-----------0-----------0-----------0-----------|
|----------------------------------------------------|
|----------------------------------------------------|
    Only        Stan- ding  still  in    ice   cold

      A chord diagramG5G5      A chord diagramFsus2Fsus2    A chord diagramA7sus4A7sus4
|-----3---3---1/3------5---3---1---3------|
|T----3---3---1/3------5---3---1---3------|
|A----0---0---0--------0---0---0---0------| Played
|B----0---0---0--------0---0---0---0------| twice
|-----------------------------------------|
|-----3---3---1/3------5---3---1---3------|
    - Ice

    A chord diagramD MajorD                                               A chord diagramC majorC
|--------------------------------------1--0-----------------| Played
|T--3-----------------------------------------3--1--1-------| four
|A--2-----------------------------------------------0-------| times
|B--0-----------------------------------------------2-------|
|---0-----------------------------------------------3-------|
|-----------------------------------------------------------|
    All machines and all are one      (Ice-  cold-  ice)
    Catching up on what's been done   (Ice-  cold-  ice)
    Stealing glimpses from the past   (Ice-  cold-  ice)
    These impressions always last     (Ice-  cold-  ice)

    A chord diagramF5F5            A chord diagramBb5Bb5 A chord diagramF5F5  A chord diagramBb5Bb5 A chord diagramF5F5                      A chord diagramBb5Bb5 A chord diagramF5F5  A chord diagramBb5Bb5 A chord diagramF5F5
|-----------------------------------------------------------------------|
|T----------------------------------------------------------------------|
|A----------------3-------3---------------------------3-------3---------|
|B--3---3---3-3-3-3---3---3---3---------3---3---3-3-3-3---3---3---3-----|
|---3---3---3-3-3-1---3---1---3---------3---3---3-3-3-1---3---1---3-----|
|---1---1---1-1-1-1---1---1---1---------1---1---1-1-1-1---1---1---1-----|
          Never penetrating              Always contemplating
     A chord diagramG5G5                                 A chord diagramA5A5                     A chord diagramBb5Bb5
|------------------------------------------------------------------------------|
|C-----------------------------------------------------------------------------|
|R--------------------------------------2----------------------3---------------|
|D---5----------------------------------2----------------------3---------------|
|----5----------------------------------0----------------------1---------------|
|----3-------------------------------------------------------------------------|
     We sit and count the blessings but we're blessed by icons No one else could

     A chord diagramDm7Dm7
|----------8-----------8-----------8-----------8-----|
|T------6-----6-----6-----6-----6-----6-----6-----6--|
|A---7-----------7-----------7-----------7-----------|
|B---0-----------0-----------0-----------0-----------|
|----------------------------------------------------|
|----------------------------------------------------|
     Trust in    ice cold    ice   cold  ice  cold -

      A chord diagramG5G5      A chord diagramFsus2Fsus2    A chord diagramA7sus4A7sus4
|-----3---3---1/3------5---3---1---3------|
|T----3---3---1/3------5---3---1---3------|
|A----0---0---0--------0---0---0---0------| Played
|B----0---0---0--------0---0---0---0------| twice
|-----------------------------------------|
|-----3---3---1/3------5---3---1---3------|
    - Ice

     A chord diagramDm7Dm7
|----------8-----------8-----------8-----------8-----|
|T------6-----6-----6-----6-----6-----6-----6-----6--|
|A---7-----------7-----------7-----------7-----------|
|B---0-----------0-----------0-----------0-----------|
|----------------------------------------------------|
|----------------------------------------------------|
     Only       Standing    still  in    ice   cold  -

     A chord diagramDm7Dm7      (hold)                  (hold)
|----------8-----------------------8-----------------|
|T------6-----6-----------------6-----6--------------|
|A---7-----------------------7-----------------------| Play
|B---0-----------------------0-----------------------| twice
|----------------------------------------------------|
|----------------------------------------------------|
     ice                     oh.....
     oh.....                 oh.....

|----------------------------------------------------------3------|
|C----6-------3--------6--------3--------6-----------------3------|
|R----5-------2--------5--------2--------5--------5--------0------|
|D----3-------0--------3--------0--------3--------5--------0------|
|-----3-------0--------3--------0--------3--------3---------------|
|----------------------------------------------------------3------|
      Ooooh-  oh      Oooh-    oh       Ooooh  Ohhhh     Ohhhh

     Pick Scrape- - - -|
|----------------------|
|----------------------|
|----------------------|
|-----X\---------------|
|-----X\----X\---------|
|-----------X\---------|

    A chord diagramD MajorD                                               A chord diagramC majorC
|--------------------------------------1--0-----------------| Played
|T--3-----------------------------------------3--1--1-------| two
|A--2-----------------------------------------------0-------| times
|B--0-----------------------------------------------2-------|
|---0-----------------------------------------------3-------|
|-----------------------------------------------------------|
    We'll stay together till the end  (Ice-  cold-  ice)
    Thinking you might be a friend    (Ice-  cold-  ice)

    A chord diagramF5F5            A chord diagramBb5Bb5 A chord diagramF5F5  A chord diagramBb5Bb5 A chord diagramF5F5                      A chord diagramBb5Bb5 A chord diagramF5F5  A chord diagramBb5Bb5 A chord diagramF5F5
|-----------------------------------------------------------------------|
|T----------------------------------------------------------------------|
|A----------------3-------3---------------------------3-------3---------|
|B--3---3---3-3-3-3---3---3---3---------3---3---3-3-3-3---3---3---3-----|
|---3---3---3-3-3-1---3---1---3---------3---3---3-3-3-1---3---1---3-----|
|---1---1---1-1-1-1---1---1---1---------1---1---1-1-1-1---1---1---1-----|
   We sit and     pray together         that they might change the weather

     A chord diagramG5G5                               A chord diagramA5A5                    A chord diagramBb5Bb5
|------------------------------------------------------------------------|
|C-----------------------------------------------------------------------|
|R------------------------------------2---------------------3------------|
|D---5--------------------------------2---------------------3------------|
|----5--------------------------------0---------------------1------------|
|----3-------------------------------------------------------------------|
     My love for you will never die  If I sound distant,    that's because

     A chord diagramDm7Dm7
|----------8-----------8-----------8-----------8-----|
|T------6-----6-----6-----6-----6-----6-----6-----6--|
|A---7-----------7-----------7-----------7-----------|
|B---0-----------0-----------0-----------0-----------|
|----------------------------------------------------|
|----------------------------------------------------|
 You shouldn't   see me      crying      ice cold -

      A chord diagramG5G5      A chord diagramFsus2Fsus2    A chord diagramA7sus4A7sus4
|-----3---3---1/3------5---3---1---3------|
|T----3---3---1/3------5---3---1---3------|
|A----0---0---0--------0---0---0---0------| Played
|B----0---0---0--------0---0---0---0------| twice
|-----------------------------------------|
|-----3---3---1/3------5---3---1---3------|
    - Ice

     A chord diagramDm7Dm7
|----------8-----------8-----------8-----------8-----|
|T------6-----6-----6-----6-----6-----6-----6-----6--|
|A---7-----------7-----------7-----------7-----------|
|B---0-----------0-----------0-----------0-----------|
|----------------------------------------------------|
|----------------------------------------------------|
     shouldn't   see me      crying      ice cold -

      A chord diagramG5G5      A chord diagramFsus2Fsus2    A chord diagramA7sus4A7sus4
|-----3---3---1/3------5---3---1---3------|
|T----3---3---1/3------5---3---1---3------|
|A----0---0---0--------0---0---0---0------| Played
|B----0---0---0--------0---0---0---0------| twice
|-----------------------------------------|
|-----3---3---1/3------5---3---1---3------|
    - Ice

     A chord diagramDm7Dm7
|----------8-----------8-----------8-----------8-----|
|T------6-----6-----6-----6-----6-----6-----6-----6--|
|A---7-----------7-----------7-----------7-----------|
|B---0-----------0-----------0-----------0-----------|
|----------------------------------------------------|
|----------------------------------------------------|
     shouldn't   see me      crying      ice cold -

|------------------------------------------------------------------------
|T----h-p-p--------h-p-p--------p-p----p-p----p-p----p-p-----------------
|A---2^4^2^0------2^4^2^0------4^2^0--5^4^0--7^5^0--9^7^0--12~---12--12\-
|B-----------------------------------------------------------------------
|------------------------------------------------------------------------
|------------------------------------------------------------------------
     ice

Repeat below four plus times to fade:

     A chord diagramDm7Dm7
|----------8-----------8-----------8-----------8-----|
|T------6-----6-----6-----6-----6-----6-----6-----6--|
|A---7-----------7-----------7-----------7-----------|
|B---0-----------0-----------0-----------0-----------|
|----------------------------------------------------|
|----------------------------------------------------|
     shouldn't   see me      crying      ice cold -

|----------3------------3------------3------------3------|
|T-------0-3----------0-3----------0-3----------0-3------|
|A---2-4-0-0------2-4-0-0------2-4-0-0------2-4-0-0------|
|B-------------------------------------------------------|
|--------------------------------------------------------|
|--------------------------------------------------------|
     ice

Alan Niles Widman  awidman@linknet.kitsap.lib.wa.us

+ minor additions by TP



YOU'RE A chord diagramA augmentedA SOLDIER  (Grant Hart)

Chords: A chord diagramC5C5     X355XX   A chord diagramD5D5    X507XX    A chord diagramA augmentedA X02220

        A chord diagramAsus2Asus2  X02200   A chord diagramAsus4Asus4 X02230    A chord diagramC majorC X32010    A chord diagramD MajorD XX023X


INTRO RIFF (played twice):

   A chord diagramC5C5      A chord diagramD5D5            A chord diagramC5C5       A chord diagramD5D5           A chord diagramA augmentedA     A chord diagramAsus2Asus2 A chord diagramA augmentedA
e:-------------------------------------------|-0---0-0---0---|
B:-------------------------------------------|-2---2-0---2---|
G:-5-5-5-/-7-------7-----5-5-5-/-7-------7---|-2---2-2---2---|
D:-5-5-5-/-0-----0-------5-5-5-/-0-----0-----|-2---2-2---2---|
A:-3-3-3-/-5---5---------3-3-3-/-5---5-------|-0---0-0---0---|
E:-------------------------------------------|---------------|
   ^ v ^   v   ^ ^  ^    ^ v ^   v   ^ ^ ^

First Verse (Verses sung over intro riff);

A chord diagramC5C5       A chord diagramD5D5            A chord diagramC5C5     A chord diagramD5D5
Running around like an insane maniac
A chord diagramC5C5       A chord diagramD5D5       A chord diagramA augmentedA
Anywhere that you please
A chord diagramC5C5       A chord diagramD5D5         A chord diagramC5C5     A chord diagramD5D5
Taking advantage of anyone handy
A chord diagramC5C5         A chord diagramD5D5   A chord diagramA augmentedA
To satisfy your disease


Chorus (Uses same riff);

         A chord diagramC5C5 A chord diagramD5D5      A chord diagramC5C5 A chord diagramD5D5     A chord diagramC5C5 A chord diagramD5D5    A chord diagramA augmentedA
You're a soldier
         A chord diagramC5C5 A chord diagramD5D5      A chord diagramC5C5 A chord diagramD5D5     A chord diagramC5C5 A chord diagramD5D5    A chord diagramA augmentedA
You're a soldier

A chord diagramC5C5     A chord diagramD5D5      A chord diagramC5C5    A chord diagramD5D5
Going off on a big adventure
    A chord diagramC5C5         A chord diagramD5D5    A chord diagramA augmentedA
You never want it to end
A chord diagramC5C5     A chord diagramD5D5   A chord diagramC5C5      A chord diagramD5D5
Saving up a million stories
   A chord diagramC5C5      A chord diagramD5D5       A chord diagramA augmentedA
To tell to all your friends

         A chord diagramC5C5 A chord diagramD5D5      A chord diagramC5C5 A chord diagramD5D5     A chord diagramC5C5 A chord diagramD5D5    A chord diagramA augmentedA
You're a soldier
         A chord diagramC5C5 A chord diagramD5D5      A chord diagramC5C5 A chord diagramD5D5     A chord diagramC5C5 A chord diagramD5D5    A chord diagramA augmentedA
You're a soldier

A chord diagramA augmentedA   /    A chord diagramAsus2Asus2 A chord diagramA augmentedA   A chord diagramAsus4Asus4 A chord diagramA augmentedA A chord diagramAsus2Asus2 A chord diagramA augmentedA      A chord diagramC majorC                A chord diagramD MajorD
Knocking o   - ver eve - rything that's standing in your way
A chord diagramA augmentedA   /   A chord diagramAsus2Asus2 A chord diagramA augmentedA   A chord diagramAsus4Asus4 A chord diagramA augmentedA   A chord diagramAsus2Asus2 A chord diagramA augmentedA  A chord diagramC majorC              A chord diagramD MajorD
Can you tell  me  just  how ma -  ny did you kill today

         A chord diagramC5C5 A chord diagramD5D5      A chord diagramC5C5 A chord diagramD5D5     A chord diagramC5C5 A chord diagramD5D5    A chord diagramA augmentedA
You're a soldier
         A chord diagramC5C5 A chord diagramD5D5      A chord diagramC5C5 A chord diagramD5D5     A chord diagramC5C5 A chord diagramD5D5    A chord diagramA augmentedA
You're a soldier
A chord diagramC5C5             A chord diagramD5D5              A chord diagramC5C5         A chord diagramD5D5
Patrolling the world with your little boy face
      A chord diagramC5C5       A chord diagramD5D5        A chord diagramA augmentedA
And a grown up gun that shoots
          A chord diagramC5C5             A chord diagramD5D5       A chord diagramC5C5        A chord diagramD5D5
You got a fresh scrubbed teenage outlook on terror
A chord diagramC5C5    A chord diagramD5D5        A chord diagramA augmentedA
And a khaki attitude

         A chord diagramC5C5 A chord diagramD5D5      A chord diagramC5C5 A chord diagramD5D5     A chord diagramC5C5 A chord diagramD5D5    A chord diagramA augmentedA
You're a soldier
         A chord diagramC5C5 A chord diagramD5D5      A chord diagramC5C5 A chord diagramD5D5     A chord diagramC5C5 A chord diagramD5D5    A chord diagramA augmentedA
You're a soldier

A chord diagramA augmentedA   /    A chord diagramAsus2Asus2 A chord diagramA augmentedA   A chord diagramAsus4Asus4 A chord diagramA augmentedA A chord diagramAsus2Asus2 A chord diagramA augmentedA      A chord diagramC majorC                A chord diagramD MajorD
Knocking o   - ver eve - rything that's standing in your way
A chord diagramA augmentedA   /   A chord diagramAsus2Asus2 A chord diagramA augmentedA   A chord diagramAsus4Asus4 A chord diagramA augmentedA   A chord diagramAsus2Asus2 A chord diagramA augmentedA  A chord diagramC majorC              A chord diagramD MajorD
Can you tell  me  just  how ma -  ny did you kill today

         A chord diagramC5C5 A chord diagramD5D5      A chord diagramC5C5 A chord diagramD5D5     A chord diagramC5C5 A chord diagramD5D5    A chord diagramA augmentedA
You're a soldier
         A chord diagramC5C5 A chord diagramD5D5      A chord diagramC5C5 A chord diagramD5D5     A chord diagramC5C5 A chord diagramD5D5    A chord diagramA augmentedA
You're a soldier
         A chord diagramC5C5 A chord diagramD5D5      A chord diagramC5C5 A chord diagramD5D5     A chord diagramC5C5 A chord diagramD5D5    A chord diagramA augmentedA
You're a soldier
         A chord diagramC5C5 A chord diagramD5D5      A chord diagramC5C5 A chord diagramD5D5     A chord diagramC5C5 A chord diagramD5D5    A chord diagramA augmentedA
You're a soldier


Solo :

   A(/sus2/A/sus4/A/sus2/A)        A chord diagramC majorC             A chord diagramD MajorD
e:---------------0-0---0---0--0--|---------------------------------|
B:-2---2---0-2---2/3---2---0--2--|---------------3---3-3-----------|
G:-2---2---2-2-------------------|-5---5-5-------2---2-2-----------|
D:-------------------------------|-5---5-5---5p0-0---0-0-----------|
A:-------------------------------|---------------------------------|
E:-------------------------------|---------------------------------|

   A(/sus2/A/sus4/A/sus2/A)        A chord diagramC majorC             A chord diagramD MajorD
e:---------------0-0---0---0--0--|---------------------------------|
B:-2---2---0-2---2/3---2---0--2--|---------------------------------|
G:-2---2---2-2-------------------|-5---5-5---5-0-7---7-7-----------|
D:-------------------------------|-5---5-5---5-0-7---7-7-----------|
A:-------------------------------|---------------5---5-5-----------|
E:-------------------------------|---------------------------------|


Outro (riff);

A chord diagramC5C5 A chord diagramD5D5    A chord diagramC5C5 A chord diagramD5D5    A chord diagramC5C5 A chord diagramD5D5     A chord diagramA augmentedA
                            You're a -
A chord diagramC5C5 A chord diagramD5D5    A chord diagramC5C5 A chord diagramD5D5    A chord diagramC5C5 A chord diagramD5D5     A chord diagramA augmentedA
soldier                     You're a -
A chord diagramC5C5 A chord diagramD5D5    A chord diagramC5C5 A chord diagramD5D5    A chord diagramC5C5 A chord diagramD5D5     A chord diagramA augmentedA
soldier                     You're a -
A chord diagramC5C5 A chord diagramD5D5    A chord diagramC5C5 A chord diagramD5D5    A chord diagramC5C5 A chord diagramD5D5     A chord diagramA augmentedA   /   A chord diagramAsus2Asus2 A chord diagramA augmentedA   A chord diagramAsus4Asus4 A chord diagramA augmentedA   A chord diagramAsus2Asus2 A(hold)
soldier

TP.



COULD YOU BE THE ONE? (Bob Mould)

Thanks to Hank Tomczak for the Fm.

Chords:

A chord diagramG+G   320033  A chord diagramFF  133211   A chord diagramC majorC X32010   A chord diagramBb majorBb X1333X   A chord diagramA minorAm X02210

A chord diagramF minorFm  122111  A chord diagramD MajorD  XX0232

A chord diagramC5C5  X3555X  A chord diagramB5B5 X2444X  A chord diagramA5A5 5776XX   A chord diagramG5G5 3554XX

A chord diagramE minor 7Em7 022033  A chord diagramFsus2Fsus2+A chord diagramD MajorD 13X033    A chord diagramD MajorD+A chord diagramA augmentedA X0023X


Intro:

A chord diagramG+G 			A chord diagramFF       A chord diagramC majorC

A chord diagramC majorC                     A chord diagramBb majorBb
Well could you be the one they talk about?
A chord diagramA minorAm       A chord diagramG+G      A chord diagramFF            A chord diagramG+G
Hiding inside behind another door,
A chord diagramC majorC               A chord diagramBb majorBb
well is it only happiness you want ?
     A chord diagramA minorAm         A chord diagramG+G        A chord diagramFF         A chord diagramG+G
does wanting or feeling matter any more.
A chord diagramF minorFm                   A chord diagramC majorC
It doesn't mean that much to me sometimes
A chord diagramF minorFm                 A chord diagramC majorC      A chord diagramG+G
I don't mean that much to you
      A chord diagramA minorAm                       A chord diagramD MajorD
and I don't even know what I'm hiding for and I

   A chord diagramE minor 7Em7         A chord diagramFsus2Fsus2+A chord diagramD MajorD     A chord diagramD MajorD+A chord diagramA augmentedA      A chord diagramG+G
e:------3-3---------3-3-------------3----3-3---| Play
B:------3-3---------3-3------3-3----3----3-3---| three
G:------0-0---------0-0----2-2-2----0----0-0---| times
D:-2----2-2----------------0-0-0----0----0-0---| ()=Ghost Notes
A:-2-----------3----3-3----0--------2----------| ie. Don't stress.
E:(0)---------(1)-------------------3----------|
   don't even  know what I'm crying for,
I don't even   know what I'm hiding for,
I'm hiding in - si    -    i  -    ide,

   A chord diagramE minor 7Em7         A chord diagramFsus2Fsus2+A chord diagramD MajorD     A chord diagramD MajorD+A chord diagramA augmentedA      A chord diagramG+G    A chord diagramFsus2Fsus2
e:------3-3---------3-3-------------3----1-1---|
B:------3-3---------3-3------3-3----3----1-1---|
G:------0-0---------0-0----2-2-2----0----0-0---|
D:-2----2-2----------------0-0-0----0----3-3---|
A:-2-----------3----3-3----0--------2----3-3---|
E:-0-----------1--------------------3----1-1---|
I'm crying in - si   -     i  -     ide

A chord diagramC majorC		             A chord diagramBb majorBb
Well could you be the one they talk about
A chord diagramA minorAm        A chord diagramG+G	      A chord diagramFF    	     A chord diagramG+G
life is a game that only you can make
A chord diagramC majorC		       A chord diagramBb majorBb
well maybe I'm about to throw it out
     A chord diagramA minorAm       A chord diagramG+G           A chord diagramFF             A chord diagramG+G
I've given it all that's all that I can take

A chord diagramF minorFm                   A chord diagramC majorC
It doesn't mean that much to me sometimes
A chord diagramF minorFm                 A chord diagramC majorC      A chord diagramG+G
I don't mean that much to you
      A chord diagramA minorAm                       A chord diagramD MajorD
and I don't even know what I'm hiding for
      A chord diagramE minor 7Em7        A chord diagramFsus2Fsus2+A chord diagramD MajorD       A chord diagramD MajorD+A chord diagramA augmentedA    A chord diagramG+G
and I don't even know what I'm crying for
   A chord diagramE minor 7Em7         A chord diagramFsus2Fsus2+A chord diagramD MajorD     A chord diagramD MajorD+A chord diagramA augmentedA
I don't even know          Well,
     A chord diagramC5C5    A chord diagramB5B5   A chord diagramA5A5         A chord diagramG5G5 A chord diagramC5C5
Could you  be the one
A chord diagramC5C5    A chord diagramB5B5   A chord diagramA5A5              A chord diagramG5G5 A chord diagramC5C5
could you  be the one

A chord diagramC5C5    A chord diagramB5B5   A chord diagramA5A5              A chord diagramG5G5     A chord diagramC5C5
could you  be the one      that's hanging around
      A chord diagramE minor 7Em7        A chord diagramFsus2Fsus2+A chord diagramD MajorD       A chord diagramD MajorD+A chord diagramA augmentedA    A chord diagramG+G
and I don't even know what I'm crying for,
  A chord diagramE minor 7Em7        A chord diagramFsus2Fsus2+A chord diagramD MajorD       A chord diagramD MajorD+A chord diagramA augmentedA    A chord diagramG+G
I don't even know what I'm hiding for,
    A chord diagramE minor 7Em7      A chord diagramFsus2Fsus2+A chord diagramD MajorD  A chord diagramD MajorD+A chord diagramA augmentedA  A chord diagramG+G
I'm hiding insi   -   i  - ide,
    A chord diagramE minor 7Em7      A chord diagramFsus2Fsus2+A chord diagramD MajorD  A chord diagramD MajorD+A chord diagramA augmentedA  A chord diagramG+G  A chord diagramFsus2Fsus2
I'm crying insi   -   i  - ide


Solo:

  A chord diagramC majorC                 A chord diagramBb majorBb           A chord diagramA minorAm        A chord diagramG+G  A chord diagramFF          A chord diagramG+G
|---------------------------------------------------------------------|
|-----------11-p-10--------------10-10-10-----13-13-p-10--------------|
|-6-/-9--12---------12-p-10-h-12-----------12------------12-p-10-h-12-|
|---------------------------------------------------------------------|
|---------------------------------------------------------------------|
|---------------------------------------------------------------------|

  A chord diagramC majorC                 A chord diagramBb majorBb           A chord diagramA minorAm        A chord diagramG+G  A chord diagramFF          A chord diagramG+G
|---------------------------------------------------------------------|
|-----------11-p-10--------------10-10-10-----13-13-p-10--------------|
|-6-/-9--12---------12-p-10-h-12-----------12------------12-p-10-h-12-|
|---------------------------------------------------------------------|
|---------------------------------------------------------------------|
|---------------------------------------------------------------------|


   A chord diagramF minorFm                   A chord diagramC majorC         A chord diagramF minorFm
|-----------------------15--------------------------------------------|
|-------------13--13-15----15-15------------13--13--15----------------|
|--12-/-13--13--13----------------12-/-13-13--13----------------------|
|---------------------------------------------------------------------|
|---------------------------------------------------------------------|
|---------------------------------------------------------------------|

   A chord diagramG+G        A chord diagramA minorAm             A chord diagramD MajorD                A chord diagramG+G
|--15-13-12---------------------------------3-------------------------|
|-----------15-13-12------------------------3-------------------------|
|--------------------14-12-12-h-14----------0-------------------------|
|-----------------------------------14/17---0-------------------------|
|-------------------------------------------2-------------------------|
|-------------------------------------------3-------------------------|

      A chord diagramE minor 7Em7        A chord diagramFsus2Fsus2+A chord diagramD MajorD       A chord diagramD MajorD+A chord diagramA augmentedA    A chord diagramG+G
and I don't even know what I'm crying for,
  A chord diagramE minor 7Em7        A chord diagramFsus2Fsus2+A chord diagramD MajorD       A chord diagramD MajorD+A chord diagramA augmentedA    A chord diagramG+G
I don't even know what I'm hiding for,
A chord diagramE minor 7Em7        A chord diagramFsus2Fsus2+A chord diagramD MajorD     A chord diagramD MajorD+A chord diagramA augmentedA       A chord diagramG+G
don't even know,       Could you be the only
A chord diagramE minor 7Em7    A chord diagramFsus2Fsus2+A chord diagramD MajorD A chord diagramD MajorD+A chord diagramA augmentedA
broken hearted one?

     A chord diagramC5C5    A chord diagramB5B5   A chord diagramA5A5         A chord diagramG5G5 A chord diagramC5C5
Well could you  be the one
A chord diagramC5C5    A chord diagramB5B5   A chord diagramA5A5              A chord diagramG5G5 A chord diagramC5C5
could you  be the one


A chord diagramC5C5    A chord diagramB5B5   A chord diagramA5A5              A chord diagramG5G5     A chord diagramC5C5
could you  be the one      that's hanging  all around
A chord diagramE minor 7Em7        A chord diagramFsus2Fsus2+A chord diagramD MajorD     A chord diagramD MajorD+A chord diagramA augmentedA       A chord diagramG+G
I don't even know,
     A chord diagramE minor 7Em7        A chord diagramFsus2Fsus2+A chord diagramD MajorD    A chord diagramD MajorD+A chord diagramA augmentedA
well don't even know

     A chord diagramC5C5    A chord diagramB5B5   A chord diagramA5A5         A chord diagramG5G5 A chord diagramC5C5
Well could you  be the one
A chord diagramC5C5    A chord diagramB5B5   A chord diagramA5A5              A chord diagramG5G5 A chord diagramC5C5
could you  be the one
A chord diagramC5C5    A chord diagramB5B5   A chord diagramA5A5              A chord diagramG5G5 A chord diagramC5C5
could you  be the one
A chord diagramC5C5    A chord diagramB5B5   A chord diagramA5A5           A chord diagramA5A5 A chord diagramG5G5 C5(hold).
could you  be the one

Daniel l Lovall (edited and extended by TP).



TOO MUCH SPICE  (Grant Hart)

Chords:  A chord diagramE MajorE 022100   A chord diagramC majorC X32010   A chord diagramG+G 320033   A chord diagramA augmentedA X02220   A chord diagramBB X2440X


Intro:   A chord diagramBB   A chord diagramA augmentedA   A chord diagramC majorC (play twice)

A chord diagramE MajorE         A chord diagramC majorC                A chord diagramG+G           A chord diagramA augmentedA
You never used to care for fancy new obsessions
A chord diagramE MajorE         A chord diagramC majorC              A chord diagramG+G            A chord diagramA augmentedA
You never used to have a reason to be bored
A chord diagramE MajorE         A chord diagramC majorC                   A chord diagramG+G           A chord diagramA augmentedA
Now you indulge yourself with new ways of possession
A chord diagramE MajorE         A chord diagramC majorC                       A chord diagramG+G              A chord diagramA augmentedA
Now you indulge yourself and your feelings are ignored

           A chord diagramBB             A chord diagramA augmentedA                  A chord diagramC majorC
And you're coloring your life with too much spice
           A chord diagramBB             A chord diagramA augmentedA                  A chord diagramC majorC
And you're coloring your life with too much spice

A chord diagramE MajorE           A chord diagramC majorC                 A chord diagramG+G                  A chord diagramA augmentedA
There was a time, there was a place, there was a reason
A chord diagramE MajorE           A chord diagramC majorC         A chord diagramG+G               A chord diagramA augmentedA
There was a situation comfortable for you
A chord diagramE MajorE             A chord diagramC majorC             A chord diagramG+G                A chord diagramA augmentedA
You've tasted everything in this here bag of season
A chord diagramE MajorE              A chord diagramC majorC                    A chord diagramG+G                A chord diagramA augmentedA
But now you're bored and you've run out of things to do

           A chord diagramBB             A chord diagramA augmentedA                  A chord diagramC majorC
And you're coloring your life with too much spice
           A chord diagramBB             A chord diagramA augmentedA                  A chord diagramC majorC
And you're coloring your life with too much spice
           A chord diagramBB             A chord diagramA augmentedA                  A chord diagramC majorC
And you're coloring your life with too much spice
           A chord diagramBB             A chord diagramA augmentedA                  A chord diagramC majorC
And you're coloring your life with too much spice


SOLO: over A chord diagramE MajorE  A chord diagramC majorC  A chord diagramG+G  A chord diagramA augmentedA  chord progression - played four times.

           A chord diagramBB             A chord diagramA augmentedA                  A chord diagramC majorC
And you're coloring your life with too much spice
           A chord diagramBB             A chord diagramA augmentedA                  A chord diagramC majorC
And you're coloring your life with too much spice

A chord diagramE MajorE             A chord diagramC majorC             A chord diagramG+G             A chord diagramA augmentedA
You don't see anything your eyes are so revealing
A chord diagramE MajorE               A chord diagramC majorC          A chord diagramG+G              A chord diagramA augmentedA
They're sharply focused on looking for a thrill
A chord diagramE MajorE                A chord diagramC majorC              A chord diagramG+G          A chord diagramA augmentedA
You've turned so numb you never notice any feeling
A chord diagramE MajorE                 A chord diagramC majorC                     A chord diagramG+G                A chord diagramA augmentedA
Your thoughts are dead and you've still got some time to kill

           A chord diagramBB             A chord diagramA augmentedA                  A chord diagramC majorC
And you're coloring your life with too much spice
           A chord diagramBB             A chord diagramA augmentedA                  A chord diagramC majorC
And you're coloring your life with too much spice
           A chord diagramBB             A chord diagramA augmentedA                  A chord diagramC majorC
And you're coloring your life with too much spice
           A chord diagramBB             A chord diagramA augmentedA                  C(hold)
And you're coloring your life with too much spice

TP.



FRIEND, YOU'VE GOT TO FALL (Bob Mould)

Chords:

A chord diagramF#F# 244322  A chord diagramE MajorE   022100  A chord diagramA augmentedA  X02220  A chord diagramB5B5 X244XX  A chord diagramC#5C#5 X466XX  A chord diagramG#5G#5 466XXX  A chord diagramF#5F#5 244XXX

A chord diagramBB  X24402  A chord diagramD#5D#5 X688XX  A chord diagramD5D5 X577XX


Intro Riff(^ V = direction of picking):

e:-----------------------|--------------------|
B:-7------7-p-0---0------|-5------5-p-0---0---|
G:-6------6-p-0---0------|-4------4---0---0---|
D:-----------------------|--------------------|
A:-----------------------|--------------------|
E:-----------------------|--------------------|
   ^      ^       v        ^      ^       v

e:-----------------------|--------------------|
B:-7------7-p-0---0------|-5------5-p-0---0---|
G:-6------6-p-0---0------|-4------4---0---0---|
D:-----------------------|--------------------|
A:-----------------------|--------------------|
E:-----------------------|--------------------|

e:-0----(0)--0----(0)--0---0---|
B:-2--/--4---5--/--7---5---4---|
G:-----------------------------|
D:-----------------------------|
A:-----------------------------|
E:-----------------------------|
   1  2  3   4  5   6  7  8 (Beat counts)

e:-----------------------|--------------------|
B:-7------7-p-0---0------|-5------5-p-0---0---|
G:-6------6-p-0---0------|-4------4---0---0---|
D:-----------------------|--------------------|
A:-----------------------|--------------------|
E:-----------------------|--------------------|

e:-----------------------|--------------------|
B:-7------7-p-0---0------|-5------5-p-0---0---|
G:-6------6-p-0---0------|-4------4---0---0---|
D:-----------------------|--------------------|
A:-----------------------|--------------------|
E:-----------------------|--------------------|

e:-0-------0---0---2---0----------|
B:-4-------5---7---2---0----------|
G:--------------------------------|
D:--------------------------------|
A:--------------------------------|
E:--------------------------------|
   1   2   3   4   5   6   7   8 (Beat counts)

A chord diagramF#F#    A chord diagramE MajorE        A chord diagramF#F#              A chord diagramE MajorE
I can hear the treetops in the distance
A chord diagramA augmentedA     A chord diagramB5B5       A chord diagramA augmentedA        A chord diagramB5B5
I can see your hollowed eyes


A chord diagramF#F#            A chord diagramE MajorE       A chord diagramF#F#               A chord diagramE MajorE
What have you done to yourself in this instance?
A chord diagramA augmentedA          A chord diagramB5B5       A chord diagramA augmentedA     A chord diagramB5B5
I guess it comes as no surprise

A chord diagramC#5C#5           A chord diagramB5B5
I can see the billboards in the distance

A chord diagramC#5C#5           A chord diagramB5B5
Writing is on every wall
A chord diagramC#5C#5           A chord diagramB5B5
I don't wanna know about your business
A chord diagramG#5G#5              A chord diagramF#5F#5                   A chord diagramBB
Sooner or later, friend, you've got to fall


A chord diagramF#F#    A chord diagramE MajorE          A chord diagramF#F#         A chord diagramE MajorE
Every night it's gotta be adventure
A chord diagramA augmentedA           A chord diagramB5B5        A chord diagramA augmentedA        A chord diagramB5B5
The way you live your life's a crime
A chord diagramF#F#            A chord diagramE MajorE       A chord diagramF#F#                 A chord diagramE MajorE
And if you're guilty, will you serve the sentence?
A chord diagramA augmentedA        /     /     /
You're already doing time


A chord diagramC#5C#5                        A chord diagramB5B5
There's nothing wrong with having aspirations
A chord diagramC#5C#5                A chord diagramB5B5
Nothing wrong with walking tall
A chord diagramC#5C#5               A chord diagramB5B5
But if misfortune deals the consequences
A chord diagramC#5C#5              A chord diagramB5B5                    A chord diagramBB
Sooner or later, friend, you've got to fall


A chord diagramF#5F#5        A chord diagramC#5C#5         A chord diagramE MajorE             A chord diagramB5B5
I know the difference, you keep your distance
A chord diagramD MajorD                              A chord diagramE MajorE
I don't wanna know what you've got
A chord diagramF#5F#5   A chord diagramC#5C#5         A chord diagramE MajorE     A chord diagramB5B5
Is it pathetic to be sympathetic?
A chord diagramD MajorD                         A chord diagramE MajorE
Maybe you don't wanna get caught
             A chord diagramG#5G#5              A chord diagramD#5D#5
Caught up in something that's real
           A chord diagramF#5F#5        A chord diagramC#5C#5
That could last for a lifetime
A chord diagramE MajorE       A chord diagramB5B5    A chord diagramD5D5
Nothing like, nothing like the
                       A chord diagramC#5C#5
Disease that's in your mind

e:-----------------------|--------------------|
B:-7------7-p-0---0------|-5------5-p-0---0---|
G:-6------6-p-0---0------|-4------4---0---0---|
D:-----------------------|--------------------|
A:-----------------------|--------------------|
E:-----------------------|--------------------|
   ^      ^       v        ^      ^       v

e:-----------------------|--------------------|
B:-7------7-p-0---0------|-5------5-p-0---0---|
G:-6------6-p-0---0------|-4------4---0---0---|
D:-----------------------|--------------------|
A:-----------------------|--------------------|
E:-----------------------|--------------------|

e:-0---0---0---0---0---0---0---2---|
B:-2---4---5---7---9---7---2---2---|
G:---------------------------------|
D:---------------------------------|
A:---------------------------------|
E:---------------------------------|

e:-----------------------|--------------------|
B:-7------7-p-0---0------|-5------5-p-0---0---|
G:-6------6-p-0---0------|-4------4---0---0---|
D:-----------------------|--------------------|
A:-----------------------|--------------------|
E:-----------------------|--------------------|
   ^      ^       v        ^      ^       v

e:-----------------------|--------------------|
B:-7------7-p-0---0------|-5------5-p-0---0---|
G:-6------6-p-0---0------|-4------4---0---0---|
D:-----------------------|--------------------|
A:-----------------------|--------------------|
E:-----------------------|--------------------|

e:-0---0---0---0---0---0---0--0--0--0---0--0--0--0---0--0--0--0---0--0--0--0-|
B:-2---4---5---7---9---10--12-12-12-12--12-12-12-12--12-12-12-12--12-12-12-12|
G:---------------------------------------------------------------------------|
D:---------------------------------------------------------------------------|
A:---------------------------------------------------------------------------|
E:---------------------------------------------------------------------------|

A chord diagramC#5C#5                        A chord diagramB5B5
There's nothing wrong with having aspirations
A chord diagramC#5C#5                A chord diagramB5B5
Nothing wrong with walking tall
A chord diagramC#5C#5               A chord diagramB5B5
But if misfortune deals the consequences
A chord diagramC#5C#5              A chord diagramB5B5                    A chord diagramBB
Sooner or later, friend, you've got to fall


A chord diagramF#F#         A chord diagramE MajorE        A chord diagramF#F#          A chord diagramE MajorE
Well I can see your life disintegrating
A chord diagramA augmentedA    A chord diagramB5B5    A chord diagramA augmentedA       A chord diagramB5B5
Into ashes in your hand
A chord diagramF#F#    A chord diagramE MajorE        A chord diagramF#F#               A chord diagramE MajorE
And I know you wouldn't want to tell me
A chord diagramA augmentedA       A chord diagramB5B5     A chord diagramA augmentedA              A chord diagramB5B5
What is wrong 'cause you're a man


A chord diagramC#5C#5           A chord diagramB5B5
I can see the billboards in the distance
A chord diagramC#5C#5           A chord diagramB5B5
Writing is on every wall
A chord diagramC#5C#5           A chord diagramB5B5
I don't wanna know about your business
A chord diagramG#5G#5              A chord diagramF#5F#5                   A chord diagramBB
Sooner or later, friend, you've got to fall

You've got to fall

You've got to fall
                   (hold final A chord diagramBB)
You've got to fall

TP.



VISIONARY  (Bob Mould)

Chords:
A chord diagramBB X24400   A chord diagramAsus2Asus2 X02200   A chord diagramG+G 320003   A chord diagramE MajorE 022100   A chord diagramDsus2Dsus2 XX0230   A chord diagramC majorC X32010

G/F# 2X0033   A chord diagramG/EG/E 0X0033   (Note * = single bass string notes)

A chord diagramBB          A chord diagramAsus2Asus2
Panhandle, pedal faster

A chord diagramE MajorE             A chord diagramAsus2Asus2
Playing card, listen, master

A chord diagramBB            A chord diagramAsus2Asus2
Pointed gun, aim to please

A chord diagramG+G               A chord diagramE MajorE
No one talking, no one sees

A chord diagramBB            A chord diagramAsus2Asus2
Take a stand and collect

A chord diagramE MajorE          A chord diagramAsus2Asus2
Images and imageless

A chord diagramBB               A chord diagramAsus2Asus2
Think in rhymes every time

A chord diagramG+G                            G/F#  A chord diagramG/EG/E
Someone was a friend of mine

A chord diagramE MajorE          A chord diagramAsus2Asus2         A chord diagramDsus2Dsus2         G*  F#*  E*
Visionary, in a cage, in Londonderry

A chord diagramE MajorE          A chord diagramAsus2Asus2            A chord diagramDsus2Dsus2      G*  F#*  E*
Visionary, foggiest notion, visionary

A chord diagramE MajorE         A chord diagramAsus2Asus2  A chord diagramDsus2Dsus2
Visionary ah, ah oh
A chord diagramC majorC                             A chord diagramAsus2Asus2
Strip away the silver and the gold


Break:
A chord diagramBB   A chord diagramAsus2Asus2   A chord diagramG+G   A chord diagramE MajorE   G*  F#*  E*   A chord diagramE MajorE   G*  F#*  E*   A chord diagramE MajorE
A chord diagramBB   A chord diagramAsus2Asus2   A chord diagramG+G   A chord diagramE MajorE   G*  F#*  E*   A chord diagramE MajorE   G*  F#*  E*   A chord diagramE MajorE

A chord diagramBB               A chord diagramAsus2Asus2
Torn up stories in your cage

A chord diagramE MajorE             A chord diagramAsus2Asus2
Never time to be a sage

A chord diagramBB        A chord diagramAsus2Asus2
you're so sublime

A chord diagramG+G                             G/F#   A chord diagramG/EG/E
Growing old before your time

A chord diagramE MajorE          A chord diagramAsus2Asus2         A chord diagramDsus2Dsus2         G*  F#*  E*
Visionary, in a cage, in Londonderry

A chord diagramE MajorE          A chord diagramAsus2Asus2            A chord diagramDsus2Dsus2      G*  F#*  E*
Visionary, foggiest notion, visionary

A chord diagramE MajorE         A chord diagramAsus2Asus2  A chord diagramDsus2Dsus2
Visionary ah, ah oh

A chord diagramC majorC                             A chord diagramAsus2Asus2
Strip away the silver and the gold

A chord diagramE MajorE          A chord diagramAsus2Asus2           A chord diagramDsus2Dsus2         G*  F#*  E*
Visionary, ah, ah, oh, oh, Londonderry

A chord diagramE MajorE          A chord diagramAsus2Asus2            A chord diagramDsus2Dsus2        G*  F#*  E*
Visionary, foggiest notion, visionary

A chord diagramE MajorE         A chord diagramAsus2Asus2  A chord diagramDsus2Dsus2                   G*  F#*  E*
Visionary ah, ah oh

A chord diagramE MajorE         A chord diagramAsus2Asus2  A chord diagramDsus2Dsus2                   G*  F#*  E*
Visionary ah,ah, oh, now

A chord diagramE MajorE         A chord diagramAsus2Asus2  A chord diagramDsus2Dsus2                   G*  F#*  E*
Visionary ah,ah, oh, now

A chord diagramE MajorE         A chord diagramAsus2Asus2  A chord diagramDsus2Dsus2                   G*  F#*  E*
Visionary ah,ah, oh, now

A chord diagramE MajorE         A chord diagramAsus2Asus2  A chord diagramDsus2Dsus2                   G*  F#*  E*
Visionary ah,ah, oh, now

A chord diagramE MajorE         A chord diagramAsus2Asus2  A chord diagramDsusDsus
Visionary ah,ah, oh, now

TP.


SHE FLOATED AWAY (Grant Hart)


Intro Chords:

A chord diagramE MajorE 079900  A chord diagramB5B5 799XXX  A chord diagramC5C5 8,10,10,XXX


Verse Chords:

A chord diagramG+G 320033  A chord diagramD MajorD XX0232  A chord diagramA minorAm X02210  A chord diagramE minorEm 022000


Intro (played twice):

   A chord diagramE MajorE                 A chord diagramB5B5  A chord diagramC5C5    A chord diagramE MajorE                 A chord diagramB5B5  A chord diagramC5C5
e:---------------0-----------|---------------0-----------|
B:---------------0-----------|---------------0-----------|
G:-9-----9-9-9---9-----------|-9-----9-9-9---9-----------|
D:-9-----9-9-9---9---9---10--|-9-----9-9-9---9---9---10--|
A:-7-7---7-7-7-------9---10--|-7-7---7-7-7-------9---10--|
E:---0---------------7---8---|---0---------------7---8---|

   A chord diagramE MajorE                 A chord diagramB5B5  A chord diagramC5C5    A chord diagramE MajorE
e:---------------0-----------|-------0---0-0-0---0-0-----|
B:---------------0-----------|-------0---0-0-0---0-0-----|
G:-9-----9-9-9---9-----------|-9-----9---9-9-9---9-9-----|
D:-9-----9-9-9---9---9---10--|-9-----9-----------9-9-----|
A:-7-7---7-7-7-------9---10--|-7-7---------------7-7-----|
E:---0---------------7---8---|---0-----------------------|

         A chord diagramG+G                          A chord diagramD MajorD
With her grandmother's face and her father's brown eyes
    A chord diagramA minorAm                       A chord diagramE minorEm
Her own force of will to her mother's surprise
  A chord diagramG+G                          A chord diagramD MajorD
A chord diagramA augmentedA whole look about her that says that she may
    A chord diagramA minorAm                      A chord diagramE minorEm
She lifted her arms and she floated away

    A chord diagramG+G                 A chord diagramD MajorD
She floated away, she floated away
    A chord diagramA minorAm                      A chord diagramE minorEm
She lifted her arms and she floated away
    A chord diagramG+G                          A chord diagramD MajorD
She don't give a damn what the other girls say
    A chord diagramA minorAm                      A chord diagramE minorEm
She lifted her arms and she floated away


Intro Riff:

A chord diagramE MajorE /   / /  / A chord diagramB5B5 A chord diagramC5C5   A chord diagramE MajorE /   / /  / A chord diagramB5B5 A chord diagramC5C5   A chord diagramE MajorE /   / /  / A chord diagramB5B5 C55   A chord diagramE MajorE /  / /  / X 2

        A chord diagramG+G                        A chord diagramD MajorD
"Let me talk to you mother," she tried to confess
A chord diagramA minorAm                  A chord diagramE minorEm
"Go ahead honey and wear the white dress
A chord diagramG+G                        A chord diagramD MajorD
Don't let traditions go stand in your way"
    A chord diagramA minorAm                      A chord diagramE minorEm
She lifted her arms and she floated away

    A chord diagramG+G                 A chord diagramD MajorD
She floated away, she floated away
    A chord diagramA minorAm                      A chord diagramE minorEm
She lifted her arms and she floated away
    A chord diagramG+G                          A chord diagramD MajorD
She don't give a damn what the other girls say
    A chord diagramA minorAm                      A chord diagramE minorEm
She lifted her arms and she floated away


Intro Riff:

A chord diagramE MajorE /   / /  / A chord diagramB5B5 A chord diagramC5C5   A chord diagramE MajorE /   / /  / A chord diagramB5B5 A chord diagramC5C5   A chord diagramE MajorE /   / /  / A chord diagramB5B5 C55   A chord diagramE MajorE /  / /  / X 2


       A chord diagramG+G                       A chord diagramD MajorD
Well a man has two reasons for things that he does
    A chord diagramA minorAm                         A chord diagramE minorEm
The first one is pride and the second one is love
A chord diagramG+G                       A chord diagramD MajorD
All understandings must come by this way
    A chord diagramA minorAm                      A chord diagramE minorEm
She lifted her arms and she floated away

    A chord diagramG+G                 A chord diagramD MajorD
She floated away, she floated away
    A chord diagramA minorAm                      A chord diagramE minorEm
She lifted her arms and she floated away
    A chord diagramG+G                          A chord diagramD MajorD
She don't give a damn what the other girls say
    A chord diagramA minorAm                      A chord diagramE minorEm
She lifted her arms and she floated away


Intro Riff:

A chord diagramE MajorE /   / /  / A chord diagramB5B5 A chord diagramC5C5   A chord diagramE MajorE /   / /  / A chord diagramB5B5 A chord diagramC5C5   A chord diagramE MajorE /   / /  / A chord diagramB5B5 A chord diagramC5C5   A chord diagramE MajorE /   / /  / X 6

Slowly:

A chord diagramG+G  A chord diagramD MajorD  A chord diagramA minorAm  A chord diagramE minorEm

BED OF NAILS (Bob Mould)


Intro:

     A chord diagramA minorAm                               A chord diagramFsus2Fsus2                    A chord diagramD MajorD
|-------0-----0-----------0-----0--0--1--1--1--1---------1---------------|
|T---1--1-----0-----------1-----0--0--1--1--1--1---------1--0--3-----3---|Played
|A---2--2--2--2--------2--2--2--2--2--0--0--2--0---------0--0--2-----2---|four
|B---2--2--2-----------2--2--2--------3--3--3--3---------3--0--0-----0---|times
|----0-----0-----------0-----0--------3--3--3--3---------3-----0-----0---|
|------------------------------------------------------------------------|

     A chord diagramAsus2Asus2
|----0-----0-----------------------------0-----0----------|
|T---0-----0-----------------------------0-----0----------|
|A---2--X--2-----------------------------2--X--2----------|
|B---2--X--2-----------------------------2--X--2----------|
|----0--X--0-----------------------2--1--0--X--0----------|
|----------------------------0--3-------------------------|
    I can walk the bed of nails          Not the only one

                 A chord diagramD MajorD                A chord diagramE minorEm              A chord diagramA minorAm       A chord diagramAsus2Asus2
|----------------0-----0----------0-----0---------0--0--0--0------------|
|T---------------3-----3----------0-----0---------1--1--1--0------------|
|A---------------2--X--2----------0--X--0---------2--2--2--2------------|
|B---------2--1--0--X--0----------2--X--2---------2--2--2--2------------|
|----0--3--------0--X--0----------2--X--2---------0--0--0--0-------2--1-|
|------------------------------------------------------------0--3-------|
                       Some they cannot walk the jagged line

                    A chord diagramD MajorD        A chord diagramE MajorE        A chord diagramAsus2Asus2              A chord diagramD MajorD     A chord diagramE MajorE
|----0-----0--------0--------2--------0-----0------------0--0--2-----|
|T---0-----0--------3--------5--------0-----0------------3--3--5-----|
|A---2--X--2--------2--------4--------2--X--2------------2--2--4-----|
|B---2--X--2--------0--------2--------2--X--2------------0--0--2-----|
|----0--X--0--------0--------2--------0--X--0------------0--0--2-----|
|--------------------------------------------------------------------|
     Callous  concentrating       For nails are sharp as lies

     A chord diagramC majorC       A chord diagramG+G       A chord diagramFsus2Fsus2 A chord diagramE minorEm  A chord diagramD MajorD   A chord diagramE MajorE      A chord diagramA minorAm       A chord diagramAsus2Asus2
|----0-------3-------1-----0---0---2------0--0--0--0------|
|T---1-------3-------1-----0---3---5------1--1--1--0------|
|A---0-------0-------0-----0---2---4------2--2--2--2------|
|B---2-------0-------------2---0---2------2--2--2--2------|
|----3---------------3-----2---0---2------0--0--0--0------|
|------------3-------------0------------------------------|
                            I run the jagged    line

      A chord diagramFF                  A chord diagramC majorC           A chord diagramE minorEm A chord diagramC majorC
|-----1-----1------------0-----------0--0-------|
|-----1-----1------------1-----------0--1-------|
|T----2--X--2------------0-----------0--0-------|
|A----3--X--3------------2-----------2--2-------|
|B----3--X--3------------3-----------2--3-------|
|-----1-----1------------------------0----------|
  From years and years of practice

    A chord diagramAsus2Asus2              A chord diagramFF
|---0-----0------------1-----1----------|
|T--0-----0------------1-----1----------|
|A--2--X--2------------2--X--2----------|
|B--2--X--2------------3--X--3----------|
|---0--X--0------------3--X--3----------|
|----------------------1-----1----------|
    I know just how to stand

     A chord diagramFF                A chord diagramE minorEm              A chord diagramA minorAm        A chord diagramAsus2Asus2
|----1-----1----------0-----0---------0--0--0---0-|
|T---1-----1----------0-----0---------1--1--0---0-|
|A---2--X--2----------0--X--0---------2--2--2---2-|
|B---3--X--3----------2--X--2---------2--2--2---2-|
|----3--X--3----------2--X--2---------0--0--0---0-|
|----1-----1----------0-----0---------------------|
   Alone with perfect balance hand in hand

     A chord diagramFF                     A chord diagramE minorEm                A chord diagramAsus2Asus2  A chord diagramG+G       A chord diagramFF
|----1-----1---------------0-----0-----------0------3-------1-------|
|T---1-----1---------------0-----0-----------0------3-------1-------|
|A---2--X--2---------------0--X--0-----------2------0-------2-------|
|B---3--X--3---------------2--X--2-----------2------0-------3-------|
|----3--X--3---------------2--X--2-----------0--------------3-------|
|----1-----1---------------0-----0------------------3-------1-------|
  Prepared with boards and hammers        And several bags of nails

     A chord diagramD MajorD                          A chord diagramA minorAm  A chord diagramD MajorD
|-------------------------------0-------------------------|
|C---3--------------------------1---3---------------------|
|R---2--------------------------2---2---------------------|
|D---0--------------------------2---0---------------------|
|----0--------------------------0---0---------------------|
|---------------------------------------------------------|
   I could build a wall to lean on  roof above my mind

     A chord diagramA minorAm  A chord diagramD MajorD                              A chord diagramA minorAm
|----0----------------------------------0--------------|
|C---1---3------------------------------1--------------|
|R---2---2------------------------------2--------------|
|D---2---0------------------------------2--------------|
|----0---0------------------------------0--------------|
|------------------------------------------------------|
   I can see you've got your own plans, please don't

    A chord diagramD MajorD                 A chord diagramE minorEm
|---------------------0---------------|
|C--3-----------------0---------------|
|R--2---------------------------------|
|D--0-----------------2---------------|
|---0-----------------2---------------|
|---------------------0---------------|
   Drive your nails into this heart of -

     A chord diagramA minorAm                               A chord diagramFsus2Fsus2                    A chord diagramD MajorD
|-------0-----0-----------0-----0--0--1--1--1--1---------1---------------|
|T---1--1-----0-----------1-----0--0--1--1--1--1---------1--0--3-----3---|Played
|A---2--2--2--2--------2--2--2--2--2--0--0--2--0---------0--0--2-----2---|two
|B---2--2--2-----------2--2--2--------3--3--3--3---------3--0--0-----0---|times
|----0-----0-----------0-----0--------3--3--3--3---------3-----0-----0---|
|------------------------------------------------------------------------|
   - mine

     A chord diagramAsus2Asus2
|----0-----0-----------------------------0-----0----------|
|T---0-----0-----------------------------0-----0----------|
|A---2--X--2-----------------------------2--X--2----------|
|B---2--X--2-----------------------------2--X--2----------|
|----0--X--0-----------------------2--1--0--X--0----------|
|----------------------------0--3-------------------------|
    I can walk the bed of nails          Grin and bear the pain

                 A chord diagramD MajorD                A chord diagramE minorEm                  A chord diagramA minorAm       A chord diagramAsus2Asus2
|----------------0-----0----------0-----0-------------0--0--0--0------------|
|T---------------3-----3----------0-----0-------------1--1--1--0------------|
|A---------------2--X--2----------0--X--0-------------2--2--2--2------------|
|B---------2--1--0--X--0----------2--X--2-------------2--2--2--2------------|
|----0--3--------0--X--0----------2--X--2-------------0--0--0--0-------2--1-|
|----------------------------------------------------------------0--3-------|
                       Some they cannot deal with all these things

                    A chord diagramD MajorD        A chord diagramE MajorE        A chord diagramAsus2Asus2                 A chord diagramD MajorD

Other versions of Warehouse Songs And Stories Album

Warehouse songs and storiesChords

Almost there ...

Sign in to get your own page with links to favourite songs and more. You are just one click away...

Login with Facebook Login with Google