Search tabs and chords

Search for song, artist or band

Log in

One click and you are in

Login with Facebook Login with Google

Why sign up and log in

Guitar Tabs Explorer
Husker Du guitar tabs for Something i learned today

Something I Learned Today tab by Husker Du

Husker Du guitar tabs for Something i learned today

Guitar tabs

Album: Zen Arcade
Year: 1984

Bass

G|---------------------------------|
D|---------------------------------|
A|22202220--------55505550---------|
E|--------22202220--------55505550-|
Guitar

e|---------------------------------|
B|---------------------------------|
G|-4-------------------------------|
D|-4-------------------------------|
A|-2-------------------------------|
E|---------------------------------|


e||----------------------------------------|
B||----------------------------------------|
B||*-4442-4442-----------4442-4442-2--22---|
B||*-4444-4444-4442-4442-4444-4444-2--22---|
B||--2222-2222-4444-4444-----------0--00---|
E||------------2222-2222-------------------|


e|----------------------------|
B|----------------------------|
G|44444444-7----44444444-7----|
D|44444444-7-77-44444444-7-77-|
A|22222222-5-77-22222222-5-77-|
E|---------5-55----------5-55-|

e|---------------------------------------|
B|---------------------------------------|
G|44444444-7----444444446666666622222222-|
D|44444444-7-77-444444446666666622222222-|
A|22222222-5-77-222222224444444400000000-|
E|---------5-55--------------------------|
                                   X4
e|---------------------------------------||
B|---------------------------------------||
G|-4442-4442-----------4442-4442-2--22--*||
D|-4444-4444-4442-4442-4444-4444-2--22--*||
A|-2222-2222-4444-4444-----------0--00---||
E|-----------2222-2222-------------------||

e|---------------------------------------|
B|---------------------------------------|
G|-4442-4442-----------4442-4442-2--22---|
D|-4444-4444-4442-4442-4444-4444-2--22---|
A|-2222-2222-4444-4444-----------0--00---|
E|-----------2222-2222-------------------|


                     X8             till fade
e||--------------------||0---||-0---2----||
B||--------------------||0---||--0-0-0-0-||
B||*44444444-666x-2-22*||2---||*--2---2-*||
B||*44444444-666x-2-22*||2---||*--------*||
B||-22222222-444x-0-00-||0---||----------||

Almost there ...

Sign in to get your own page with links to favourite songs and more. You are just one click away...

Login with Facebook Login with Google