Log in

One click and you are in

Login with Facebook Login with Google

Why sign up and log in

Guitar Tabs Explorer
Hüsker Dü guitar tabs for Powerline

Guitar tabs

Written by Bob Mould
Recorded by Husker Du on album "New Day Rising" (SST)
File format: tab
Transribed by Gary Von Colln

Intro Riff (play notes as harmonics, except for last measure)

e-|--------------------|--------------------|--------------------|------------
B-|--------------------|--------------------|--------------------|------------
G-|----------12----12--|----------12----12--|----------12----12--|------------
D-|-12-12-12----12-----|-12-12-12----12-----|-12-12-12----12-----|------------
A-|--------------------|--------------------|--------------------|------------
E-|--------------------|--------------------|--------------------|------------

e-|-----------------------|---------------------------------------------------
B-|-----------------------|---------------------------------------------------
G-|-12---p11-11-11-11-11--|---------------------------------------------------
D-|-----------------------|---------------------------------------------------
A-|-----------------------|---------------------------------------------------
E-|-----------------------|---------------------------------------------------


Verse progression

   What's this hummin' ...
e-|-----2--2--2--|-----2--2--2--|-----2--2--2--|--3-p2--2--2--2--|------------
B-|-----2--2--2--|-----2--2--2--|-----2--2--2--|--3-----3--3--3--|------------
G-|-----0--0--0--|-----0--0--0--|-----0--0--0--|--2-----2--2--2--|------------
D-|-----0--0--0--|-----0--0--0--|-----0--0--0--|--0-----0--0--0--|------------
A-|-----2--2--2--|--1-----------|--3-----------|-----------------|------------
E-|--3-----------|--------------|--------------|-----------------|------------


Chorus progression

   It aggravates and it pacifies, hear ...
e-|-----2--2--2--|-----2--2--2--|-----2--2--2--|--3-p2--2--2--2--|------------
B-|-----2--2--2--|-----2--2--2--|-----2--2--2--|--3-----3--3--3--|------------
G-|-----0--0--0--|-----0--0--0--|-----0--0--0--|--2-----2--2--2--|------------
D-|-----0--0--0--|-----0--0--0--|-----0--0--0--|--0-----0--0--0--|------------
A-|--1-----------|--3-----------|-----2--2--2--|-----------------|------------
E-|--------------|--------------|--3-----------|-----------------|------------

Outro progression
                                                 Pow...
e-|--3--3--5--3--|--6--6--8--6--|--8--8-10--8--|-10-10-12-10--|---------------
B-|--3--3--3--3--|--6--6--6--6--|--8--8--8--8--|-10-10-10-10--|---------------
G-|--4--4--4--4--|--7--7--7--7--|--9--9--9--9--|-11-11-11-11--|---------------
D-|--------------|--------------|--------------|--------------|---------------
A-|--------------|--------------|--------------|--------------|---------------
E-|--------------|--------------|--------------|--------------|---------------


Song structure and words
------------------------


[Intro 2x]

[Over verse progression 4x]
What's this hummin' in ...

[Over chorus progression 2x]
It aggravates and it ...

[Over verse progression 4x]
Strung up high on every ...

[Over chorus progression 4x]
It captivates, as it ...

[Over outro progression, 4x]
Powerline

[Repeat intro riff 2x]

Other versions of Powerline

PowerlineChords

Almost there ...

Sign in to get your own page with links to favourite songs and more. You are just one click away...

Login with Facebook Login with Google