Guitar Tabs Explorer
Husker Du guitar tabs for Pink turns to blue

Pink Turns To Blue tab


Be the first to rate

Pink Turns To Blue tab by Husker Du

Guitar tabs

Print

Album: Zen Arcade (1984)
Guitarist: Bob Mould
Tuning: Standard (EADGBE)

Intro/Main riff:

E|------------------------|
B|-------5----------5-----|
G|----------6----------6--|
D|--6-6--------6-6--------|
A|--4-4--------0-0--------|
E|------------------------|

Verses:

E|--------------------------7-7-7-7-7-7-7--|
B|-------5----------5-------8-8-8-8-8-8-8--|
G|----------6----------6----9-9-9-9-9-9-9--|
D|--6-6--------6-6----------9-9-9-9-9-9-9--|
A|--4-4--------0-0----------7-7-7-7-7-7-7--|
E|-----------------------------------------|

Chorus:
"don't know what to do..."

E|-----------------------------------------------|
B|--3-3-3-3----1-1-1-1---------5----------5------|
G|--4-4-4-4----2-2-2-2------------6----------6---|
D|--4-4-4-4----2-2-2-2----6-6--------6-6---------|
A|--2-2-2-2----0-0-0-0----4-4--------0-0---------|
E|-----------------------------------------------|

Comment this song and these guitar tabs

Do you have corrections, comments on the guitar tabs, thoughts about the song or a message to the author? Write them below.