Guitar Tabs Explorer
Husker Du guitar tabs for Newest industry

Newest Industry tab


Be the first to rate

Newest Industry tab by Husker Du

Guitar tabs

Print

Album: Zen Arcade
Year: 1984


e||------------------------------------------||
B||------------------------------------------||
B||*3--4-3-4-3-4-6-4-3-4-3---—3-4-3-4-3-4-4-*||
B||*-----------------------4----------------*||
B||------------------------------------------||
E||------------------------------------------||

e||-------------------------------------------|
B||-------------------------------------------|
B||*------------4-------------4-------------4-|
B||*4-4-4-4-4-4-4-4-4-4-4-4-4-4-4-4-4-4-4-4-4-|
B||-4-4-4-4-4-4-2-4-4-4-4-4-4-2-4-4-4-4-4-4-2-|
E||-2-2-2-2-2-2---2-2-2-2-2-2---2-2-2-2-2-2---|

e|------------------------------------------|
B|------------------------------------------|
G|------------4-------------4-------------4-|
D|4-4-4-4-4-4-4-4-4-4-4-4-4-4-4-4-4-4-4-4-4-|
A|4-4-4-4-4-4-2-4-4-4-4-4-4-2-4-4-4-4-4-4-2-|
E|2-2-2-2-2-2---2-2-2-2-2-2---2-2-2-2-2-2---|

e|----------------------------|
B|----------------------------|
G|------------4-------------4-|
D|4-4-4-4-4-4-4-4-4-4-4-4-4-4-|
A|4-4-4-4-4-4-2-4-4-4-4-4-4-2-|
E|2-2-2-2-2-2---2-2-2-2-2-2---|

e|-----------------------------------------------|
B|-----------------------------------------------|
G|---------------------------------------------9-|
D|6--8-8-8-8-8-8-6--8-8-8-8-8-8-7--9-9-9-9-9-9-9-|
A|6--8-8-8-8-8-8-6--8-8-8-8-8-8-7--9-9-9-9-9-9-7-|
E|4--6-6-6-6-6-6-4--6-6-6-6-6-6-5--7-7-7-7-7-7---|

e|-----------------------------------------------||
B|-----------------------------------------------||
G|---------------------------------------------9*||
D|6--8-8-8-8-8-8-6--8-8-8-8-8-8-7--9-9-9-9-9-9-9*||
A|6--8-8-8-8-8-8-6--8-8-8-8-8-8-7--9-9-9-9-9-9-7-||
E|4--6-6-6-6-6-6-4--6-6-6-6-6-6-5--7-7-7-7-7-7—--||

“Is that how you like it…”
e|-------------------------------------|
B|-------------------------------------|
G|8---4---6-----------------------2----|
D|8---4---6---7---9---6---2-2-2-2-2----|
A|6---2---4---7---9---6---2-2-2-2-0----|

Comment this song and these guitar tabs

Do you have corrections, comments on the guitar tabs, thoughts about the song or a message to the author? Write them below.