Search tabs and chords

Search for song, artist or band

Log in

One click and you are in

Login with Facebook Login with Google

Why sign up and log in

Guitar Tabs Explorer
Hüsker Dü guitar tabs for Masochism world

Guitar tabs

Album: Zen Arcade
Year: 1984



e||-------------------------------------------||
B||-------------------------------------------||
B||*----------------------------13-----------*||
B||*-8/10-10--8/10-10--8/10-10—-13-13-----8--*||
B||--8/10-10--8/10-10--8/10-10—-11-13-----8---||
E||--6/8--8---6/8--8---6/8--8------11-----6---||

Verse
X4
e||-------------------------------------------||
B||-------------------------------------------||
B||*----------------------------13-----------*||
B||*-8/10-10--8/10-10--8/10-10—-13-13-----8--*||
B||--8/10-10--8/10-10--8/10-10—-11-13-----8---||
E||--6/8--8---6/8--8---6/8--8------11-----6---||

Chorus

e||-------------------------------------------||
B||-------------------------------------------||
B||*-----------------------------------------*||
B||*-11-10-8---11-10-8---11-10-8---11-10-8---*||
B||--11-10-8---11-10-8---11-10-8---11-10-8----||
E||--9--8--6---9--8--6---9--8--6---9--8--6----||

Verse
X4
e||-------------------------------------------||
B||-------------------------------------------||
B||*----------------------------13-----------*||
B||*-8/10-10--8/10-10--8/10-10—-13-13-----8--*||
B||--8/10-10--8/10-10--8/10-10—-11-13-----8---||
E||--6/8--8---6/8--8---6/8--8------11-----6---||

Instrumental Bridge

e||--------------------------------------------||
B||--12-------------------12-------------------||
B||*-12------11-11-11-11--12------11-11-11-11-*||
B||*-12------12-12-12-12--12------12-12-12-12-*||
B||--10------12-12-12-12--10------12-12-12-12--||
E||----------10-10-10-10----------10-10-10-10--||

Verse
X4
e||-------------------------------------------||
B||-------------------------------------------||
B||*----------------------------13-----------*||
B||*-8/10-10--8/10-10--8/10-10—-13-13-----8--*||
B||--8/10-10--8/10-10--8/10-10—-11-13-----8---||
E||--6/8--8---6/8--8---6/8--8------11-----6---||

Chorus

e||-------------------------------------------||
B||-------------------------------------------||
B||*-----------------------------------------*||
B||*-11-10-8---11-10-8---11-10-8---11-10-8---*||
B||--11-10-8---11-10-8---11-10-8---11-10-8----||
E||--9--8--6---9--8--6---9--8--6---9--8--6----||


Notation
/		Slide Up



Can you feel it feel it feel it
In your soul
Can you tell me
Tell me if it's hot or cold

Can you tell me what it is
Does it hurt you when I do this

Stop it stop it stop it
You're pulling too hard
Stop it
You're going too far

I love it I hate it I
love it I hate it too
I love it
So how about you?

Can you tell me
'cause I don't know
Why don't you tell me why is it so
Confusing!

Almost there ...

Sign in to get your own page with links to favourite songs and more. You are just one click away...

Login with Facebook Login with Google