Guitar Tabs Explorer
Husker Du guitar tabs for Makes no sense at all

Makes No Sense At All tab


Be the first to rate

Makes No Sense At All tab by Husker Du

Guitar tabs

Print

Album: Flip Your Wig
Year: 1985


e|-------------------------------------|
B|------------1-1-1----3-3-3-33-33-3-3-|
G|--4-4-4-4-2-2-2-2----0-0-0-00-00-2-2-|
D|--5-5-5-5-3-2-2-2-3------0-00-00-0-0-|
A|--5-5-5-5-3-0-0-0-3--3-2-0-0---------|
E|--3-3-3-3-1-------1---------3-33-----|

e|-------------------------------------|
B|------------1-1-1----3-3-3-33-33-3-3-|
G|--4-4-4-4-2-2-2-2----0-0-0-00-00-2-2-|
D|--5-5-5-5-3-2-2-2-3------0-00-00-0-0-|
A|--5-5-5-5-3-0-0-0-3--3-2-0-0---------|
E|--3-3-3-3-1-------1---------3-33-----|

e|-------------------------------------|
B|------------1-1-1----3-3-3-33-33-3-3-|
G|--4-4-4-4-2-2-2-2----0-0-0-00-00-2-2-|
D|--5-5-5-5-3-2-2-2-3------0-00-00-0-0-|
A|--5-5-5-5-3-0-0-0-3--3-2-0-0---------|
E|--3-3-3-3-1-------1---------3-33-----|

e|-------------------------------------|
B|------------1-1-1----3-3-3-33-33-3-3-|
G|--4-4-4-4-2-2-2-2----0-0-0-00-00-2-2-|
D|--5-5-5-5-3-2-2-2-3------0-00-00-0-0-|
A|--5-5-5-5-3-0-0-0-3--3-2-0-0---------|
E|--3-3-3-3-1-------1---------3-33-----|

e|--------------------------------|
B|3-3-3-33-33-3-3-3-3-3-33-33-3-3-|
G|0-0-0-00-00-2-2-0-0-0-00-00-2-2-|
D|----0-00-00-0-0-----0-00-00-0-0-|
A|3-2-0-0---------3-2-0-0---------|
E|-------3-33------------3-33-----|

e|--------------------------------|
B|3-3-3-33-33-3-3-3-3-3-33-33-3-3-|
G|0-0-0-00-00-2-2-0-0-0-00-00-2-2-|
D|----0-00-00-0-0-----0-00-00-0-0-|
A|3-2-0-0---------3-2-0-0---------|
E|-------3-33------------3-33-----|

e|0---------0----0-------------------|
B|0----3----1----0---3-3-3-3-3-3-3-3-|
G|0----0----0----0---2-2-2-2-2-2-2-2-|
D|2----0----2----2---0-0-0-0-0-0-0-0-|
A|2----2----3----2-------------------|
E|0----3---------0-------------------|

e|0---------0----0-------------------2-2-2-2-2-2-2-2-2-|
B|0----3----1----0---3-3-3-3-3-3-3-3-1-1-1-1-1-1-1-1-1-|
G|0----0----0----0---2-2-2-2-2-2-2-2-2-2-2-2-2-2-2-2-2-|
D|2----0----2----2---0-0-0-0-0-0-0-0-0-0-0-0-0-0-0-0-0-|
A|2----2----3----2-------------------------------------|

Comment this song and these guitar tabs

Do you have corrections, comments on the guitar tabs, thoughts about the song or a message to the author? Write them below.