Guitar Tabs Explorer
Husker Du bass tabs for Dont want to know if you are lonely

Don't Want To Know If You Are Lonely bass tab


Be the first to rate

Don't Want To Know If You Are Lonely bass tab by Husker Du

Bass tabs with lyrics

Print
Tabbed by BongFuFighter

s=Stop Vibration
b=Bend Strings
r= Release bend
h=hold

Bass:

Intro

G:----------------------------------------------------------|
D:----------------------------------------------------------|
A:-------------2-2-2--2-2-2--3-3-3--3-3-3-------------------|
E:-0--0--0-0-0----------------------------3--3-3--3s-2s-2s--|


Verse


G:----------------------------------------------------------|
D:----------------------------------------------------------|
A:-------------2-2-2--2-2-2--3-3-3--3-3-3-------------------|
E:-0--0--0-0-0----------------------------3--3-3--3s-2s-2s--|


Chorus

G:-------------------------------------------------------|
D:----------------------------------------7-7-7-7-5-3-0--|
A:-2--2--2-2-2-3-3-3--3-3-3------------------------------|
E:---------------------------5s-3-5s-3-5h----------------|


Solo



G:----------------------------------------------------------|
D:-2--2--2-2-2----------------------------------------------|
A:-------------2-2-2--2-2-2--3-3-3--3-3-3-------------------|
E:----------------------------------------3-3-3--3-3-3------|


Interlude

G:----------------------------------------------------------|
D:----------------------------------------------------------|
A:----------------------------------------------------------|
E:-1-1-1-1-1-1-0-0-0-0-0-0-1-1-1-1-1-1-0-0-0-0-0-0----------|


3. Verse

G:----------------------------------------------------------|
D:-2--2--2-2-2----------------------------------------------|
A:-------------2-2-2--2-2-2--3-3-3--3-3-3-------------------|
E:----------------------------------------3-3-3--3-3-3------|


End song with

G:-----------|
D:-----------|
A:-----------|
E:---3h------|



Arrangement:

Intro     x2
Verse     x4
Chorus    x4
Verse     x4
Chorus    x4
Solo      x4
Interlude x4
Verse     x4
Chorus    x8


Lyrics

I'm curious to know exactly how you are
I keep my distance but that distance is too far
It reassures me just to know that you're okay
But I don't want you to go on needing me this way

And I don't want to know if you are lonely
Don't want to know if you are less than lonely
Don't want to know if you are lonely
Don't want to know, don't want to know

The day you left me, left me feeling oh so bad
Still I'm not sure about all the doubts we had
From the beginning we both knew it wouldn't last
Decisions have been made the die has been cast

The phone is ringing and the clock says four A.M.
If it's your friends, well I don't want to hear from them
Please leave your number and a message at the tone

Comment this song and these bass tabs

Do you have corrections, comments on the bass tabs, thoughts about the song or a message to the author? Write them below.