Guitar Tabs Explorer
Husker Du bass tabs for Chartered trips

Chartered Trips bass tab


Be the first to rate

Chartered Trips bass tab by Husker Du

Bass tabs with lyrics

Print

decided to keep them in note form.

Intro
G:-------------------------------------------------------------------------|
D:-------------------------2---2---2---------------------------------------|
A:-2---2---2---4---4---4---------------0---0---0---------------------------|
E:-------------------------------------------------3---3---3---2---2---2---|

Verse Riff (play bass notes with thumb)
   F#            G#                B                C#
G:-------------------------------------------------------------------------|
D:-------------------------------------------------------------------------|
A:------------------------------2---2---2---2----4---4---4---44------------|
E:-2---2---2---2-4---4---4---4-4-------------------------------------------|

F#                  G#              B           C#
Well I picked up my belongings in a nylon carry-all
F#                G#         B        C#
I hear the porter call
F#                  G#            B               C#
Said "The sky's the limit on this chartered trip away,"
F#                  G#         A
I guess I'd better stay

F#               G#             B             C#
Out there on the desert, I see trees on every wall
F#             G#           B        C#
Nothing's ever solved
F#                  G#            B               C#
Said "The sky's the limit on this chartered trip away,"
F#               A
Guess I'd better stay away

Riff 3 (played twice)
G:-------------------------------------------------------------------------|
D:-------------------------2---2---2---------------------------------------|
A:-2---2---2---4---4---4---------------0---0---0---------------------------|
E:-------------------------------------------------3---3---3---2---2---2--3|

G:---------------------|
D:---------------------|
A:---------------------|
E:---3---3---2---2---2-|

CHORUS

G                         A
I thought I owed myself a trip away
G                            A
I wanted to go to places I have never been away
G                                 A
I looked at the pictures, imagine where they lay
G                                        A                         G
Away on a beach by the sand, where their clothes all lay, clothes all, clothes

all lay away


F#             G#              B           C#
I picked up my belongings in a nylon carry-all
F#                G#         B        C#
I hear the porter call
F#          G#        B               C#
Horizon is oblivious, chartered trip away
F#                  G#        A
I guess I'd better stay

F#               G#             B             C#
Out there on the desert, I see trees on every wall
F#             G#           B        C#
Nothing's ever solved
F#          G#        B               C#
Horizon is oblivious, chartered trip away
F#                      A
GuessI guess I'd better stay away

Riff 3
Said "There's no returning from this chartered trip away."
Riff 3
Said "There's no returning from this chartered trip away."

RPT. CHORUS

F#           G#              B           C#
Picked up my belongings in a nylon carry-all
F#              G#         B        C#
Hear the porter call
F#               G#                  B               C#
Said "There's no returning from this chartered trip away,"
F#                 G#      A
I guess I'd better stay

F#                 G#                 B              C#
Said "There's no returning from this chartered trip away,"
F#                 G#                 B              C#
Said "There's no returning from this chartered trip away,"
F#                 G#                 B              C#
Said "There's no returning from this chartered trip away,"
F#        A
Said no return......


Outro (Riff 4) played over A to fade:
G:------------------------------------|
D:---7-7-7-----7-7-7-----7-7-7---7-7--|
A:-7---------7---------7--------------|
E:------------------------------------|

Thanks TP.

Comment this song and these bass tabs

Do you have corrections, comments on the bass tabs, thoughts about the song or a message to the author? Write them below.