Guitar Tabs Explorer
Hush Puppies bass tabs for Packt up like sardines in a crushtin box

Packt Up Like Sardines In A Crushtin Box bass tab


Be the first to rate

Packt Up Like Sardines In A Crushtin Box bass tab by Hush Puppies

Bass tabs

Print

Packt Up Like Sardines in a Crushtin Box - HushPuppies
-------------------------------------------------------------------------------

Tabbed By : superfranki

Tuning: Standard

Verse:
G |---------------------------------|---------------------------------|
D |---------------------------------|---------------------------------|
A |-5-5-5-5-5-5-5-5-5-5-5-5-5-5-5-5-|-8-8-8-8-8-8-8-8-8-8-8-8-8-8-8-8-|
E |---------------------------------|---------------------------------|

G |---------------------------------|
D |---------------------------------|
A |---------------------------------|
E |-6-6-6-6-6-6-6-6-6-6-6-6-6-6-6-6-|

G |---------------------------------|---------------------------------|
D |---------------------------------|---------------------------------|
A |-5-5-5-5-5-5-5-5-5-5-5-5-5-5-5-5-|-8-8-8-8-8-8-8-8-8-8-8-8-8-8-8-8-|
E |---------------------------------|---------------------------------|

G |---------------------------------|---------------------------------|
D |---------------------------------|---------------------------------|
A |---------------------------------|-------------------------3-3-4-4-|
E |-6-6-6-6-6-6-6-6-6-6-6-6-6-6-6-6-|-5-5-5-5-5-5-5-5-3-3-5-5---------|

Variations:
G |---------------------------------|---------------------------------|
D |---------------------------------|---------------------------------|
A |-5-5-5-5-5-5-5-5-5-5-5-5-5-0-5-5-|-8-8-8-8-8-8-8-8-8-8-8-8-6h8-8-8-|
E |---------------------------------|---------------------------------|


Chorus 1:
G |-----------------------------------------|
D |-----------------------------------------| x4
A |-5-5-5-5/13-13-13-13-8-8-8-8/12-12-12-12-|
E |-----------------------------------------|

G |-------------------------------------|
D |-------------------------------------|
A |-5-5-5-5-7-7-7-7-8-8-8-8/12-12-12-12-|
E |-------------------------------------|

(Verse)

Chorus 2:
G |-----------------------------------------|
D |-----------------------------------------| x4
A |-5-5-5-5/13-13-13-13-8-8-8-8/12-12-12-12-|
E |-----------------------------------------|

G |-------------------------------------|
D |-------------------------------------|
A |-5-5-5-5-7-7-7-7-8-8-8-8/12-12-12-12-|
E |-------------------------------------|

G |---------------------------------|
D |---------------------------------|
A |-5-5-5-5---------8-8-8-8---------|
E |---------6-6-6-6---------5-5-5-5-|

(Verse)

Chorus 3:
G |-----------------------------------------|
D |-----------------------------------------| x4
A |-5-5-5-5/13-13-13-13-8-8-8-8/12-12-12-12-|
E |-----------------------------------------|

G |-------------------------------------|
D |-------------------------------------|
A |-5-5-5-5-7-7-7-7-8-8-8-8/12-12-12-12-|
E |-------------------------------------|

G |---------------------------------|
D |---------------------------------|
A |-5-5-5-5---------8-8-8-8---------|
E |---------6-6-6-6---------5-5-5-5-|

G |-------------------------------------|
D |-------------------------------------|
A |-5-5-5-5-7-7-7-7-8-8-8-8/12-12-12-12-|
E |-------------------------------------|

G |-------------------|
D |-------------------|
A |-5-5-5-5---------8-|
E |---------6-6-6-6---|

(Break)

G |-----------------------------------------|
D |-----------------------------------------| x2
A |-5-5-5-5/13-13-13-13-8-8-8-8/12-12-12-12-|
E |-----------------------------------------|

G |-------------------------------------|
D |-------------------------------------| x2
A |-5-5-5-5-7-7-7-7-8-8-8-8/12-12-12-12-|
E |-------------------------------------|

G |---------------------------------|
D |---------------------------------|
A |-5-5-5-5---------8-8-8-8---------|
E |---------6-6-6-6---------5-5-5-5-|

G |-------------------------------------|----|
D |-------------------------------------|----|
A |-5-5-5-5-7-7-7-7-8-8-8-8/12-12-12-12-|-5~-|
E |-------------------------------------|----|

| /  slide up
| \  slide down
| h  hammer-on
| p  pull-off
| ~  vibrato
| +  harmonic
| x  Mute note

Comment this song and these bass tabs

Do you have corrections, comments on the bass tabs, thoughts about the song or a message to the author? Write them below.