Guitar Tabs Explorer
Hurts bass tabs for Miracle

Miracle bass tab


Be the first to rate

Miracle bass tab by Hurts

Bass tabs

Print

std tuning  EADG

INTRO
G |-7---7-5---------|-----------------|-7--7-5----------|-----------------|
D |---------7---7-5-|-7---5---3-------|---------7---7-5-|-7---5---3-------|
A |-----------------|-------------5---|-----------------|-------------5---|
E |-----------------|-----------------|-----------------|-----------------|
    1 & 2 & 3 & 4 &   1 & 2 & 3 & 4 &   1 & 2 & 3 & 4 &   1 & 2 & 3 & 4 &

VERSE 1
G |-----------------|-----------------|-----------------|-----------------|
D |---------3---3-3-|-5---5-5---------|---------3---3-3-|-5---5-5---------|
A |-5---5-5---------|---------5---5-5-|-5---5-5---------|---------5---5-5-|
E |-----------------|-----------------|-----------------|-----------------|
    1 & 2 & 3 & 4 &   1 & 2 & 3 & 4 &   1 & 2 & 3 & 4 &   1 & 2 & 3 & 4 &
G |-7---7-5---------|-----------------|
D |---------7---7-5-|-7---5---3-------|
A |-----------------|-------------5---|
E |-----------------|-----------------|
    1 & 2 & 3 & 4 &   1 & 2 & 3 & 4 &
G |-----------------|-----------------|-----------------|-----------------|
D |---------3---3-3-|-5---5-5---------|---------3---3-3-|-5---5-5---------|
A |-5---5-5---------|---------5---5-5-|-5---5-5---------|---------5---5-5-|
E |-----------------|-----------------|-----------------|-----------------|
    1 & 2 & 3 & 4 &   1 & 2 & 3 & 4 &   1 & 2 & 3 & 4 &   1 & 2 & 3 & 4 &

PRE CHORUS
G |-----------------|-----------------|-------------7---|-----------------|
D |-----------------|-----------------|-----------7---7-|-----------2-3-5-|
A |-3-3-3-3-3-3-3-3-|-1-1-1-1-1-1-1-1-|-5-5-5-5-5-------|-3-3-3-3-3-------|
E |-----------------|-----------------|-----------------|-----------------|
    1 & 2 & 3 & 4 &   1 & 2 & 3 & 4 &   1 & 2 & 3 & 4 &   1 & 2 & 3 & 4 &
G |-----------------|-----------------|-------------7---|-----------------|
D |-----------5-3-2-|-----------------|-----------7---7-|-----------------|
A |-3-3-3-3-3-------|-1-1-1-1-1-0-1-3-|-5-5-5-5-5-------|-3-3-3-3-3-------|
E |-----------------|-----------------|-----------------|-----------------|
    1 & 2 & 3 & 4 &   1 & 2 & 3 & 4 &   1 & 2 & 3 & 4 &   1 & 2 & 3 & 4 &
REST ONE BAR

CHORUS
G |-----------------|-----------------|-----------------|-----------------|
D |-----------------|-----------------|-----------------|-----------------|
A |-----------------|-5---5-5-3---3-3-|-----------------|---------3---3-3-|
E |-3---3-3-6---6-6-|-----------------|-3---3-3-6---6-6-|-1---1-1---------|
    1 & 2 & 3 & 4 &   1 & 2 & 3 & 4 &   1 & 2 & 3 & 4 &   1 & 2 & 3 & 4 &
G |-----------------|-----------------|-----------------|-----------------|
D |-----------------|-----------------|-----------------|-----------------|
A |-----------------|-5---5-5-3---3-3-|-----------------|---------3---3-3-|
E |-3---3-3-6---6-6-|-----------------|-3---3-3-6---6-6-|-1---1-1---------|
    1 & 2 & 3 & 4 &   1 & 2 & 3 & 4 &   1 & 2 & 3 & 4 &   1 & 2 & 3 & 4 &

VERSE 2
G |-----------------|-----------------|-----------------|-----------------|
D |---------3---3-3-|-5---5-5---------|---------3---3-3-|-5---5-5---------|
A |-5---5-5---------|---------5---5-5-|-5---5-5---------|---------5---5-5-|
E |-----------------|-----------------|-----------------|-----------------|
    1 & 2 & 3 & 4 &   1 & 2 & 3 & 4 &   1 & 2 & 3 & 4 &   1 & 2 & 3 & 4 &
G |-7---7-5---------|-----------------|
D |---------7---7-5-|-7---5---3-------|
A |-----------------|-------------5---|
E |-----------------|-----------------|
    1 & 2 & 3 & 4 &   1 & 2 & 3 & 4 &

PRE CHORUS
G |-----------------|-----------------|-------------7---|-----------------|
D |-----------------|-----------------|-----------7---7-|-----------2-3-5-|
A |-3-3-3-3-3-3-3-3-|-1-1-1-1-1-1-1-1-|-5-5-5-5-5-------|-3-3-3-3-3-------|
E |-----------------|-----------------|-----------------|-----------------|
    1 & 2 & 3 & 4 &   1 & 2 & 3 & 4 &   1 & 2 & 3 & 4 &   1 & 2 & 3 & 4 &
G |-----------------|-----------------|-------------7---|-----------------|
D |-----------5-3-2-|-----------------|-----------7---7-|-----------------|
A |-3-3-3-3-3-------|-1-1-1-1-1-0-1-3-|-5-5-5-5-5-------|-3-3-3-3-3-------|
E |-----------------|-----------------|-----------------|-----------------|
    1 & 2 & 3 & 4 &   1 & 2 & 3 & 4 &   1 & 2 & 3 & 4 &   1 & 2 & 3 & 4 &
REST ONE BAR

CHORUS
G |-----------------|-----------------|-----------------|-----------------|
D |-----------------|-----------------|-----------------|-----------------|
A |-----------------|-5---5-5-3---3-3-|-----------------|---------3---3-3-|
E |-3---3-3-6---6-6-|-----------------|-3---3-3-6---6-6-|-1---1-1---------|
    1 & 2 & 3 & 4 &   1 & 2 & 3 & 4 &   1 & 2 & 3 & 4 &   1 & 2 & 3 & 4 &
G |-----------------|-----------------|-----------------|-----------------|
D |-----------------|-----------------|-----------------|-----------------|
A |-----------------|-5---5-5-3---3-3-|-----------------|---------3---3-3-|
E |-3---3-3-6---6-6-|-----------------|-3---3-3-6---6-6-|-1---1-1---------|
    1 & 2 & 3 & 4 &   1 & 2 & 3 & 4 &   1 & 2 & 3 & 4 &   1 & 2 & 3 & 4 &

FILL
G |-----------------|-----------------|                                                D |---REST----------|---REST----------|                                                A |-----------------|-----------------|
E |-----------------|-----------------|
    1 & 2 & 3 & 4 &   1 & 2 & 3 & 4 &
G |-----------------|-----------------|-----------------|-----------------|
D |-----------------|-----------------|-----------------|-----------------|
A |-3---3-3-3---3-3-|-1---1-1-1---1-1-|-5---5-5-5---5-5-|-3---3-3-3---3-3-|
E |-----------------|-----------------|-----------------|-----------------|
    1 & 2 & 3 & 4 &   1 & 2 & 3 & 4 &   1 & 2 & 3 & 4 &   1 & 2 & 3 & 4 &
G |-----------------|-----------------|-----------------|-----------------|
D |-----------------|-----------------|-----------------|-----------------|
A |-3------3--3--3--|-3---------------|-3---3---3---3---|-3---3---3---3---|
E |-----------------|-----------------|-----------------|-----------------|
    1 & 2 & 3 & 4 &   1 & 2 & 3 & 4 &   1 & 2 & 3 & 4 &   1 & 2 & 3 & 4 &

CHORUS
G |-----------------|-----------------|-----------------|-----------------|
D |-----------------|-----------------|-----------------|-----------------|
A |-----------------|-5---5-5-3---3-3-|-----------------|---------3---3-3-|
E |-3---3-3-6---6-6-|-----------------|-3---3-3-6---6-6-|-1---1-1---------|
    1 & 2 & 3 & 4 &   1 & 2 & 3 & 4 &   1 & 2 & 3 & 4 &   1 & 2 & 3 & 4 &
G |-----------------|-----------------|-----------------|-----------------|
D |-----------------|-----------------|-----------------|-----------------|
A |-----------------|-5---5-5-3---3-3-|-----------------|---------3---3-3-|
E |-3---3-3-6---6-6-|-----------------|-3---3-3-6---6-6-|-1---1-1---------|
    1 & 2 & 3 & 4 &   1 & 2 & 3 & 4 &   1 & 2 & 3 & 4 &   1 & 2 & 3 & 4 &

ENDING
G |-----------------|-----------------|-----------------|-----------------|
D |-----------------|-----------------|-----------------|-----------------|
A |-----------------|-5---5-5-3---3-3-|-----------------|---------3---3-3-|
E |-3---3-3-6---6-6-|-----------------|-3---3-3-6---6-6-|-1---1-1---------|
    1 & 2 & 3 & 4 &   1 & 2 & 3 & 4 &   1 & 2 & 3 & 4 &   1 & 2 & 3 & 4 &
G |-----------------|-----------------|-----------------|-----------------|
D |-----------------|-----------------|-----------------|-----------------|
A |-----------------|-5---5-5-3---3-3-|-----------------|---------3---3-3-|
E |-3---3-3-6---6-6-|-----------------|-3---3-3-6---6-6-|-1---1-1---------|
    1 & 2 & 3 & 4 &   1 & 2 & 3 & 4 &   1 & 2 & 3 & 4 &   1 & 2 & 3 & 4 &

Comment this song and these bass tabs

Do you have corrections, comments on the bass tabs, thoughts about the song or a message to the author? Write them below.