Log in

One click and you are in

Login with Facebook Login with Google

Why sign up and log in

Guitar Tabs Explorer
Hurt Mississippi John tabs for Candy man

Guitar tabs with lyrics

This is from the album 'Mississippi John Hurt Today!', Vanguard records.

Key of A, 4/4 time.


Notes:

 2h3 means note at 2, hammer on 3
 2/9 means note at 2, slide to 9
First Part:

      x   x   x   x     x   x   x   x
E---|-----------------|-----------------
B---|-----------2h3---|-2h3---2---------
G---|-----2---------2-|-----------------
D---|-----2-------2---|-----2-----------
A---|-0---------------|-0-------0-------
E-0-|---------0-------|-------------0---


      x   x   x   x     x   x   x   x
E---|-----------------|-----------------
B---|-----------2h3---|-2h3---2---------
G---|-----2---------2-|-----------------
D---|-----2-------2---|-----2-----------
A---|-0---------------|-0-------4---3---
E---|---------0-------|-----------------


      x   x   x   x     x   x   x   x
E---|-----------4-----|-4---0-4---0-----
B---|-----3---------3-|---3-------------
G---|-----------------|---------------2-
D---|-----0-------0---|-----0-------0---
A---|-2---------------|-2---------------
E---|---------0-------|---------0-------

      x   x   x   x     x   x   x   x
E---|-----5-----5-----|-5---------------
B---|-----------------|-----------------
G---|-2-------------2-|-------2---------
D---|-----2-------2---|-----2-----------
A---|-0-------0-------|-0-------4---3---
E---|-----------------|-----------------


      x   x   x   x     x   x   x   x
E---|-----------0-----|-4---0-4---0-----
B---|-------3-------3-|---3-------------
G---|-----------------|-----------------
D---|-----0-----------|-----0-------0---
A---|-2-----------0---|-2---------------
E---|---------0-------|---------0-------


      x   x   x   x     x   x   x   x
E---|-----5-----5-----|-5-----5-----5---
B---|-----------------|-----------------
G---|---2---2-------2-|-----------2-----
D---|-----2-------2---|-----2-------2---
A---|-0---------------|-0---------------
E---|---------0-------|---------0-------


Second Part:

      x   x   x   x     x   x   x   x
E---|-5---5---5---5---|-5---------------
B---|-----------------|-----------------
G---|---------------2-|-----------------
D---|-4---4---3---3---|-2---------------
A---|-----------------|-----4---0-------
E---|-----------------|-------------2---


      x   x   x   x     x   x   x   x
E---|---------4-------|---5-----5---5---
B---|-----3-----------|-----------------
G---|-----------------|-------2---------
D---|-----------------|-----2-------2---
A---|-----2-------2---|-0-------0-------
E---|-0-------0-------|-----------------


      x   x   x   x     x   x   x   x
E---|-5-5-5---5---5---|-5---------------
B---|-----------------|-----------------
G---|-------2-------2-|-----------------
D---|-4---4---3---3---|-2---------------
A---|-----------------|-----4---0-------
E---|-----------------|-------------2---


      x   x   x   x     x   x   x   x
E---|-----4---4-------|---5-----5-------
B---|---3---3---------|-----------------
G---|-----------------|-------2---------
D---|-----------------|-----2-------2/9-
A---|-----2-------2---|-0-------0-------
E---|-0-------0-------|-----------------


Third part, instrumental
(note: 12 is 'twelve', not 'one, two')

      x     x     x     x      x     x     x     x
E---|-------12------12-------|-12-------10---12-------
B---|------------------------|------------------------
G---|----------------------9-|----9-----------------9-
D---|-------9-----------9----|-------9-----------9----
A---|------------------------|------------------------
E---|-0-----------0----------|-0-----------0----------


      x     x     x     x      x     x     x     x
E---|---12--------10-12------|-12-------10------------
B---|------------------------|------------------------
G---|----------9-----------9-|------------------------
D---|-------9-----------9----|-------9-----------9----
A---|------------------------|------------------------
E---|-0-----------0----------|-0-----------0----------


      x     x     x     x      x     x     x     x
E---|-------9--------9-------|-9-----0--9-----0-------
B---|---------------------10-|---10-------------------
G---|-------9-----------9----|-------9-----------9----
D---|------------------------|------------------------
A---|-0-----------0----------|-0-----------0---------
E---|------------------------|------------------------


      x     x     x     x      x     x     x     x
E---|----------5-------------|----------0-------------
B---|-5-/7-----------7-------|----5-----------5-------
G---|------------------------|-------6-----------6----
D---|-------0-----------0----|------------------------
A---|-0-----------0----------|-0-----------0----------
E---|------------------------|------------------------


      x     x     x     x      x     x     x     x
E---|----------0-------------|------------------------
B---|----3-----------3-------|----------2-------------
G---|-------4-----------4----|----2-------------------
D---|------------------------|-------2----------------
A---|-0-----------0----------|-0-----------4-----3----
E---|------------------------|------------------------


      x     x     x     x      x     x     x     x
E---|----------------0-------|-4-----0--4-----0-------
B---|----------3-----------3-|----3-------------------
G---|------------------------|----------------------2-
D---|-------0-----------0----|-------0-----------0----
A---|-2----------------------|-2----------------------
E---|-------------0----------|-------------0----------


      x     x     x     x      x     x     x     x
E---|-------5-----5-----5----|-5-----5-----5----------
B---|------------------------|------------------------
G---|-2--------------2-------|------------------------
D---|-------5-----4-----4----|-3-----3-----2----------
A---|-0----------------------|------------------------
E---|------------------------|------------------------


First part:

Well come you ladies ...

Second part:

Well hey there candy man you ...


----------------------- Headers --------------------------------
From rama@gladstone.uoregon.edu Tue Dec 27 22:40:31 1994
 (1.37.109.11/16.2) id AA003236031; Tue, 27 Dec 1994 22:40:31 -0500
 by OREGON.UOREGON.EDU (PMDF V4.3-9 #7713)
 id <01HL5ELJPFHS8Y56LL@OREGON.UOREGON.EDU>; Tue,
 27 Dec 1994 19:42:24 -0800 (PST)
Cc: rama@gladstone.uoregon.edu


---jbs---

Almost there ...

Sign in to get your own page with links to favourite songs and more. You are just one click away...

Login with Facebook Login with Google