Log in

One click and you are in

Login with Facebook Login with Google

Why sign up and log in

Guitar Tabs Explorer
Hurriganes bass tabs for My only one

Bass tabs

My_Only_One.btab
Hurriganes
TablEdited by Poppamies

Tuning : E A D G 	Time Signature: 4/4

 |    |    |    |    |    |    |    |
|--------------------------------|--------------------------------|
|--------------------------------|--------------------------------|
|--------------------------------|3-----------3-----------3---2---|
|--------------------------------|--------------------3-----------|

 |    |    |    |    |    |    |    |
|--------------------------------|--------------------------------|
|--------------------------------|--------------------------------|
|0-----------0-------0---0-------|--------------------------------|
|----------------------------3---|1-----------1-------0---1---2---|

 |    |    |    |    |    |    |    |
|--------------------------------|--------------------------------|
|--------------------------------|--------------------------------|
|------------------------0---2---|3-----------3-----------3---2---|
|3-----------3-------3-----------|--------------------3-----------|

 |    |    |    |    |    |    |    |
|--------------------------------|--------------------------------|
|--------------------------------|--------------------------------|
|0-----------0-------0---0-------|--------------------------------|
|----------------------------3---|1-----------1-------0---1---2---|

 |    |    |    |    Do you remember...   |
|--------------------------------|--------------------------------|
|--------------------------------|--------------------------------|
|------------------------0---2---|3-----------3-----------3---2---|
|3-----------3-------3-----------|--------------------3-----------|

 |    |    |    |    |    |    |    |
|--------------------------------|--------------------------------|
|--------------------------------|--------------------------------|
|0-----------0-------0---0-------|--------------------------------|
|----------------------------3---|1-----------1-------0---1---2---|

 |    |    |    |    |    Do you know that|you...
|--------------------------------|--------------------------------|
|--------------------------------|--------------------------------|
|------------------------0---2---|3-----------3-----------3---2---|
|3-----------3-------3-----------|--------------------3-----------|

 |    |    |    |    |    |    |    |
|--------------------------------|--------------------------------|
|--------------------------------|--------------------------------|
|0-----------0-------0---0-------|--------------------------------|
|----------------------------3---|1-----------1-------0---1---2---|

 |    |    |    |    |   'Cause you|were my...
|--------------------------------|--------------------------------|
|--------------------------------|--------------------------------|
|--------------------------------|--------------------------------|
|3-----------3---3---3---3---3---|3-------------------------------|

 |    |    |    |    |    |    |    |
|------------------------0-------|------------------------0-------|
|------------2-------------------|------------2-------2-----------|
|3-------------------------------|3-------------------------------|
|--------------------------------|--------------------------------|

 |    |    |    |    |    |    |    |
|--------------------------------|--------------------------------|
|------------------------2-------|------------------------2-------|
|0-----------3-------------------|0-----------3-------3-----------|
|--------------------------------|--------------------------------|

 |    |    |    |    |    |    |    |
|--------------------------------|--------------------------------|
|--------------------------------|--------------------------------|
|------------0-----------3-------|------------0-------0---3-------|
|1-------------------------------|1-------------------------------|

 |    |    |    |    |    |    |    |
|--------------------------------|--------------------------------|
|--------------------------------|--------------------------------|
|--------------------------------|----------------0---0---2---2---|
|3---3---3---3---3---3---3---3---|3---3---3---3-------------------|

 Do you know what|you've...    |    |    |    |
|--------------------------------|--------------------------------|
|--------------------------------|--------------------------------|
|3-----------3-----------3---2---|0-----------0-------0---0-------|
|--------------------3-----------|----------------------------3---|

 |    |    |    |    |    |    |    |
|--------------------------------|--------------------------------|
|--------------------------------|--------------------------------|
|--------------------------------|------------------------0---2---|
|1-----------1-------0---1---2---|3-----------3-------3-----------|

 |    |    |    |    |    |    |    |
|--------------------------------|--------------------------------|
|--------------------------------|--------------------------------|
|3-----------3-----------3---2---|0-----------0-------0---0-------|
|--------------------3-----------|----------------------------3---|

 |    |    |    |    |    |    |    |
|--------------------------------|--------------------------------|
|--------------------------------|--------------------------------|
|--------------------------------|------------------------0---2---|
|1-----------1-------0---1---2---|3-----------3-------3-----------|

http://www.geocities.com/jani_bjorklund/janis.html


Jan Bjorklund, Finland

Almost there ...

Sign in to get your own page with links to favourite songs and more. You are just one click away...

Login with Facebook Login with Google