Log in

One click and you are in

Login with Facebook Login with Google

Why sign up and log in

Guitar Tabs Explorer
Hurriganes bass tabs for Bourbon street

Bass tabs

Bourbon Street.btab
Hurriganes
TablEdited by Jan Bjorklund

Tuning : E A D G 	Time Signature: 4/4

 |    |    |    |    |    |    |    |
|--------------------------------|--------------------------------|
|--------------------------------|--------------------------------|
|--------------------------------|3---------------3-------3-------|
|--------------------------------|--------------------------------|

 |    |    |    |    |    |    |    |
|--------------------------------|--------------------------------|
|--------------------------------|--------------------------------|
|0-----------0---0---0---0---0---|--------------------------------|
|--------------------------------|1-----------1---1---1---1---0---|

 |    |    |    |    |    |    |    |
|--------------------------------|--------------------------------|
|--------------------------------|--------------------------------|
|------------------------0---2---|3-----------3---3-------3-------|
|3-----------3---3---------------|--------------------------------|

 |    |    |    |    |    |    |    |
|--------------------------------|--------------------------------|
|--------------------------------|--------------------------------|
|0-----------0---0-------0-------|--------------------------------|
|----------------------------3---|1-------1-------1-------1-------|

 |    |    |    |    Everything goes on late here...
|--------------------------------|----------------0---------------|
|--------------------------------|--------2---------------2---2---|
|------------------------0---2---|3---3---------------------------|
|3-------3-------3---3-----------|--------------------------------|

 |    |    |    |    |    |    |    |
|--------------------------------|--------------------------------|
|----------------2---2-----------|--------------------------------|
|0-------3---------------3---3---|--------0-------3---3---0---0---|
|--------------------------------|1-------------------------------|

 |    |    |    |    Sitting back  |    |
|--------------------------------|----------------0---0-----------|
|----------------0---0-----------|--------2---------------2---2---|
|--------2---------------2---2---|3-------------------------------|
|3-------------------------------|--------------------------------|

 in a Cadillac...|    |    |    |    |    |
|--------------------------------|--------------------------------|
|----------------2---2-------2---|--------------------------------|
|0-------3---------------3-------|--------0-------3-------0-------|
|--------------------------------|1-------------------------------|

 |    |    |    |    Bourbon Street |    |
|--------------------------------|----------------0---------------|
|----------------0---------------|--------2---------------2-------|
|--------2---------------2---2---|3-------------------------------|
|3-------------------------------|--------------------------------|

 Bourbon Street |    |    Bourbon Street |    |
|--------------------------------|--------------------------------|
|----------------2-----------2---|--------------------------------|
|0-------3---------------3-------|--------0-------3-------0-------|
|--------------------------------|1-------------------------------|

 Watching|my baby|    |    |    |    |    |
|--------------------------------|----------------0-----------0---|
|----------------0---0-----------|--------2---------------2-------|
|--------2---------------2---2---|3-------------------------------|
|3-------------------------------|--------------------------------|

 |    |    |    |    |    |    |    |
|--------------------------------|--------------------------------|
|----------------2-----------2---|--------------------------------|
|0-------3---------------3-------|--------0-------3-------0-------|
|--------------------------------|1-------------------------------|

 |    |    |    |    Well, you get on|famous...
|--------------------------------|----------------0---------------|
|----------------0---0-----------|--------2---------------2-------|
|--------2---------------2---2---|3-------------------------------|
|3-------------------------------|--------------------------------|

 |    |    |    |    |    |    |    |
|--------------------------------|--------------------------------|
|----------------2-----------2---|--------------------------------|
|0-------3---------------3-------|--------0-------3-------0-------|
|--------------------------------|1-------------------------------|

 |    |    |    |    |    |    |    |
|--------------------------------|----------------0---------------|
|----------------0---0-----------|--------2---------------2-------|
|--------2---------------2---2---|3-------------------------------|
|3-------------------------------|--------------------------------|

 |    |    |    |    |    |    |    |
|--------------------------------|--------------------------------|
|----------------2-----------2---|--------------------------------|
|0-------3---------------3-------|--------0-------3-------0-------|
|--------------------------------|1-------------------------------|

 |    |    |    |    Bourbon Street |    |
|--------------------------------|----------------0---------------|
|----------------0---0-----------|--------2---------------2-------|
|--------2---------------2-------|3-------------------------------|
|3-------------------------------|--------------------------------|

 Bourbon Street |    |    Bourbon Street |    |
|--------------------------------|--------------------------------|
|----------------2-----------2---|--------------------------------|
|0-------3---------------3-------|--------0-------3-------0-------|
|--------------------------------|1-------------------------------|

 Watching|my baby|    |    |    |    |    |
|--------------------------------|----------------0---------------|
|----------------0---0-----------|--------2---------------2---2---|
|--------2---------------2---2---|3-------------------------------|
|3-------------------------------|--------------------------------|

 |    |    |    |    |    |    |    |
|--------------------------------|--------------------------------|
|----------------2-----------2---|--------------------------------|
|0-------3---------------3-------|--------0-------3-------0-------|
|--------------------------------|1-------------------------------|

 |    |    |    |    All the people smoke outside...
|--------------------------------|--------------------------------|
|----------------0---0-----------|--------------------------------|
|--------2---------------2-------|--------0-------3-------0-------|
|3-------------------------------|1-------------------------------|

 |    |    |    |    |    |    |    |
|--------------------------------|--------------------------------|
|----------------0-----------0---|--------------------------------|
|--------2---------------2-------|--------0-------3-------0-------|
|3-------------------------------|1-------------------------------|

 |    |    |    |    |    |    |    |
|--------------------------------|--------------------------------|
|----------------0---0-------0---|--------------------------------|
|--------2---------------2-------|3---------------------------2---|
|3-------------------------------|------------------------3-------|

 |    |    |    |    Come see|me,  |    |
|--------------------------------|--------------------------------|
|--------------------------------|--------------------------------|
|0-------------------------------|--------0-------3-------0-------|
|--------------------------------|1-------------------------------|

 hey, I got the best  |    |    |    |    |
|--------------------------------|--------------------------------|
|----------------0-----------0---|--------------------------------|
|--------2---------------2-------|--------0-------3-------0-------|
|3-------------------------------|1-------------------------------|

 |    |    |    |    |    |    |    |
|--------------------------------|--------------------------------|
|----------------0---0-------0---|--------------------------------|
|--------2---------------2-------|3---------------------------2---|
|3-------------------------------|------------------------3-------|

 |    |    |    |    |    |    |    |
|--------------------------------|--------------------------------|
|--------------------------------|--------------------------------|
|0-------------------------------|--------------------------------|
|--------------------------------|1-1-1---1-1-1---1-1-1---1-1-1---|

 |    |    |    |    (S O L O)   |    |
|--------------------------------|----------------0---------------|
|--------------------------------|--------2---------------2-------|
|--------------------------------|3-------------------------------|
|3-3-3---3-3-3---3-3-3---3-3-3---|--------------------------------|

 |    |    |    |
|--------------------------------|
|----------------2-----------2---|
|0-------3---------------3-------|
|--------------------------------|

http://www.geocities.com/jani_bjorklund/janis.html


Jan Bjorklund, Finland

Almost there ...

Sign in to get your own page with links to favourite songs and more. You are just one click away...

Login with Facebook Login with Google