Guitar Tabs Explorer
Hunter And Wolfe guitar tabs for All my might

All My Might tab


Be the first to rate

All My Might tab by Hunter And Wolfe

Intro

Print

This is only the main backing and the hammer on variations. The chorus is self explanatory following this.
its (Em chord diagramEmEm, C chord diagramCC, F chord diagramFF) I believe.


Intro:

             C chord diagramCC                             Em chord diagramEmEm
e|-----------------------------|-----------------------------|
B|-----------1-----1--------1--|-----------0-----0--------0--|
G|-----0--------0-----0--------|-----0--------0-----0--------|
D|--------2--------2-----2-----|--------2--------2-----2-----|
A|--3--------------------------|--2--------------------------|
E|-----------------------------|-----------------------------|
             F chord diagramFF
e|-----------------------------|-----------------------------------|
B|-----------1-----1--------1--|-----------------------------------|
G|-----2--------2-----2--------|-----0-----0-----0-----0-----0-----|
D|--------3--------3-----3-----|--------0-----1-----2-----1-----0--|
A|--0--------------------------|-----------------------------------|
E|-----------------------------|--3--------------------------------|

The last part you can either slide, or as I like to do, just keep your middle finger on the top G chord diagramGG, and your
index and ring finger do the 0-1-2 alternation.


Verse:

Add these random hammer on's throughout!

             C chord diagramCC                               Em chord diagramEmEm
e|-------------------------------|-------------------------------|
B|-----------1---------------1---|-----------0-----3h0--------0--|
G|-----0--------0-------0--------|-----0--------0-------0--------|
D|--------2--------0h2-----2-----|--------2----------------2-----|
A|--3----------------------------|--2----------------------------|
E|-------------------------------|-------------------------------|
             F chord diagramFF
e|-------------------------------|-----------------------------------|
B|-----------1----------------1--|-----------------------------------|
G|-----2-----------0h2--2--------|-----0-----0-----0-----0-----0-----|
D|--------3-----3----------3-----|--------0-----1-----2-----1-----0--|
A|--0----------------------------|-----------------------------------|
E|-------------------------------|--3--------------------------------|



************************************

| h   Hammer-on
| p   Pull-off

Comment this song and these intro

Do you have corrections, comments on the intro, thoughts about the song or a message to the author? Write them below.